  0
SECTION
  2
HEADER
  9
$ACADVER
  1
AC1009
  9
$INSBASE
 10
0
 20
0
 30
0
  9
$EXTMIN
 10
0
 20
0
  9
$EXTMAX
 10
840
 20
594
  9
$LIMMIN
 10
0
 20
0
  9
$LIMMAX
 10
840
 20
594
  9
$LTSCALE
 40
2
  0
ENDSEC
  0
SECTION
  2
TABLES
  0
TABLE
  2
LTYPE
 70
     9
  0
LTYPE
  2
CONTINUOUS
 70
    64
  3
実線
 72
    65
 73
     0
 40
0.0
  0
LTYPE
  2
DASHED1
 70
    64
  3
--  --  --  --  --  --  --  --  
 72
    65
 73
     2
 40
2.5
 49
1.25
 49
-1.25
  0
LTYPE
  2
DASHED2
 70
    64
  3
----    ----    ----    ----    
 72
    65
 73
     2
 40
5.0
 49
2.5
 49
-2.5
  0
LTYPE
  2
DASHED3
 70
    64
  3
------  ------  ------  ------  
 72
    65
 73
     2
 40
5.0
 49
3.75
 49
-1.25
  0
LTYPE
  2
CENTER1
 70
    64
  3
----- - ----- - ----- - ----- - 
 72
    65
 73
     4
 40
10.0
 49
6.25
 49
-1.25
 49
1.25
 49
-1.25
  0
LTYPE
  2
CENTER2
 70
    64
  3
----------  --  ----------  --  
 72
    65
 73
     4
 40
20.0
 49
12.5
 49
-2.5
 49
2.5
 49
-2.5
  0
LTYPE
  2
PHANTOM1
 70
    64
  3
--- - - --- - - --- - - --- - - 
 72
    65
 73
     6
 40
10.0
 49
3.25
 49
-1.25
 49
1.25
 49
-1.25
 49
1.25
 49
-1.25
  0
LTYPE
  2
PHANTOM2
 70
    64
  3
--------  -  -  --------  -  -  
 72
    65
 73
     6
 40
20.0
 49
10.0
 49
-2.5
 49
1.25
 49
-2.5
 49
1.25
 49
-2.5
  0
LTYPE
  2
DOT
 70
    64
  3
-   -   -   -   -   -   -   -   
 72
    65
 73
     2
 40
2.5
 49
0.625
 49
-1.875
  0
LTYPE
  2
DUMMY
 70
    64
  3
ダミー
 72
    65
 73
     0
 40
0.0
  0
LTYPE
  2
RAND1
 70
    64
  3
ランダム線1
 72
    65
 73
     4
 40
10.0
 49
1.0
 49
-2.0
 49
3.0
 49
-4.0
  0
LTYPE
  2
RAND2
 70
    64
  3
ランダム線2
 72
    65
 73
     4
 40
14.0
 49
2.0
 49
-3.0
 49
4.0
 49
-5.0
  0
LTYPE
  2
RAND3
 70
    64
  3
ランダム線3
 72
    65
 73
     4
 40
18.0
 49
3.0
 49
-4.0
 49
5.0
 49
-6.0
  0
LTYPE
  2
RAND4
 70
    64
  3
ランダム線4
 72
    65
 73
     4
 40
22.0
 49
4.0
 49
-5.0
 49
6.0
 49
-7.0
  0
LTYPE
  2
RAND5
 70
    64
  3
ランダム線5
 72
    65
 73
     4
 40
26.0
 49
5.0
 49
-6.0
 49
7.0
 49
-8.0
  0
LTYPE
  2
LONG1
 70
    64
  3
----------  --  ----------  --  
 72
    65
 73
     4
 40
40.0
 49
32.5
 49
-2.5
 49
2.5
 49
-2.5
  0
LTYPE
  2
LONG2
 70
    64
  3
--------  -  -  --------  -  -  
 72
    65
 73
     6
 40
40.0
 49
30.0
 49
-2.5
 49
1.25
 49
-2.5
 49
1.25
 49
-2.5
  0
LTYPE
  2
LONG3
 70
    64
  3
+++++++++++++++..+++++++++++++++
 72
    65
 73
     2
 40
40.0
 49
37.5
 49
-2.5
  0
LTYPE
  2
LONG4
 70
    64
  3
+++++++++++++++..+++++++++++++++
 72
    65
 73
     2
 40
80.0
 49
75.0
 49
-5.0
  0
LTYPE
  2
LONG5
 70
    64
  3
----------  --  ----------  --  
 72
    65
 73
     4
 40
60.0
 49
37.5
 49
-7.5
 49
7.5
 49
-7.5
  0
LTYPE
  2
dashed
 70
   64
  3
-------   -------------   ------
 72
   65
 73
    2
 40
7.5
 49
6
 49
-1.5
  0
LTYPE
  2
dashed_spaced
 70
   64
  3
----        --------        ----
 72
   65
 73
    2
 40
12
 49
6
 49
-6
  0
LTYPE
  2
long_dashed_dotted
 70
   64
  3
------------- --- --------------
 72
   65
 73
    4
 40
15.25
 49
12
 49
-1.5
 49
0.25
 49
-1.5
  0
LTYPE
  2
long_dashed_double-dotted
 70
   64
  3
----------- --- --- ------------
 72
   65
 73
    6
 40
17
 49
12
 49
-1.5
 49
0.25
 49
-1.5
 49
0.25
 49
-1.5
  0
LTYPE
  2
long_dashed_triplicate-dotted
 70
   64
  3
--------- --- --- --- ----------
 72
   65
 73
    8
 40
18.75
 49
12
 49
-1.5
 49
0.25
 49
-1.5
 49
0.25
 49
-1.5
 49
0.25
 49
-1.5
  0
LTYPE
  2
dotted
 70
   64
  3
   -       -       -       -    
 72
   65
 73
    2
 40
1.75
 49
0.25
 49
-1.5
  0
LTYPE
  2
chain
 70
   64
  3
-------------- -- --------------
 72
   65
 73
    4
 40
18.5
 49
12
 49
-1.5
 49
3.5
 49
-1.5
  0
LTYPE
  2
chain_double_dash
 70
   64
  3
------------ -- -- -------------
 72
   65
 73
    6
 40
23.5
 49
12
 49
-1.5
 49
3.5
 49
-1.5
 49
3.5
 49
-1.5
  0
LTYPE
  2
dashed_dotted
 70
   64
  3
-----------     -     ----------
 72
   65
 73
    4
 40
9.25
 49
6
 49
-1.5
 49
0.25
 49
-1.5
  0
LTYPE
  2
double-dashed_dotted
 70
   64
  3
------   -----------   -   -----
 72
   65
 73
    6
 40
16.75
 49
6
 49
-1.5
 49
6
 49
-1.5
 49
0.25
 49
-1.5
  0
LTYPE
  2
dashed_double-dotted
 70
   64
  3
---------    -    -    ---------
 72
   65
 73
    6
 40
11
 49
6
 49
-1.5
 49
0.25
 49
-1.5
 49
0.25
 49
-1.5
  0
LTYPE
  2
double-dashed_double-dotted
 70
   64
  3
-----   ---------   -   -   ----
 72
   65
 73
    8
 40
18.5
 49
6
 49
-1.5
 49
6
 49
-1.5
 49
0.25
 49
-1.5
 49
0.25
 49
-1.5
  0
LTYPE
  2
dashed_triplicate-dotted
 70
   64
  3
-------    -    -    -    ------
 72
   65
 73
    8
 40
12.75
 49
6
 49
-1.5
 49
0.25
 49
-1.5
 49
0.25
 49
-1.5
 49
0.25
 49
-1.5
  0
LTYPE
  2
double-dashed_triplicate-dotted
 70
   64
  3
-----  ---------  -  -  -  -----
 72
   65
 73
   10
 40
20.25
 49
6
 49
-1.5
 49
6
 49
-1.5
 49
0.25
 49
-1.5
 49
0.25
 49
-1.5
 49
0.25
 49
-1.5
  0
LTYPE
  2
undefined
 70
   64
  3
--------------------------------
 72
   65
 73
    0
 40
0
  0
LTYPE
  2
DASHEDX2
 70
   64
  3
------     -----------     -----
 72
   65
 73
    2
 40
1.5
 49
1
 49
-0.5
  0
LTYPE
  2
CENTERX2
 70
   64
  3
----------    ----    ----------
 72
   65
 73
    4
 40
4
 49
2.5
 49
-0.5
 49
0.5
 49
-0.5
  0
LTYPE
  2
PHANTOMX2
 70
   64
  3
---------   ---   ---   --------
 72
   65
 73
    6
 40
5
 49
2.5
 49
-0.5
 49
0.5
 49
-0.5
 49
0.5
 49
-0.5
  0
ENDTAB
  0
TABLE
  2
STYLE
  5
3
100
AcDbSymbolTable
 70
     1
  0
STYLE
  5
10
100
AcDbSymbolTableRecord
100
AcDbTextStyleTableRecord
  2
STANDARD
 70
     0
 40
0.0
 41
1.0
 50
0.0
 71
     0
 42
0.2
  3
txt
  4
bigfont.shx
  0
STYLE
  5
26
100
AcDbSymbolTableRecord
100
AcDbTextStyleTableRecord
  2
TATEGAKI
 70
    68
 40
0.0
 41
1.0
 50
0.0
 71
     0
 42
1.0
  3
txt
  4
bigfont.shx
  0
ENDTAB
  0
TABLE
  2
LAYER
 70
    7
  0
LAYER
  2
_0-1_ZISSEN1
 70
   64
 62
    7
  6
CONTINUOUS
  0
LAYER
  2
_0-2_SUNPOU
 70
   64
 62
    7
  6
CONTINUOUS
  0
LAYER
  2
_0-3_KAKURESEN1
 70
   64
 62
    7
  6
CONTINUOUS
  0
LAYER
  2
_0-4_CL1
 70
   64
 62
    7
  6
CONTINUOUS
  0
LAYER
  2
_0-5_SOUZOUSEN
 70
   64
 62
    7
  6
CONTINUOUS
  0
LAYER
  2
_0-7_SAISEN
 70
   64
 62
    7
  6
CONTINUOUS
  0
LAYER
  2
ADD_LINE
 70
   64
 62
    7
  6
CONTINUOUS
  0
ENDTAB
  0
ENDSEC
  0
SECTION
  2
BLOCKS
  0
BLOCK
  2
-000-_D0
 70
   64
 10
0
 20
0
 30
0
  0
LINE
  8
_0-2_SUNPOU
  6
CONTINUOUS
 62
    1
 10
-1153.3707667826609
 20
1951.4798239061481
 11
-1164.182949523778
 21
1951.4798239061481
  0
LINE
  8
_0-2_SUNPOU
  6
CONTINUOUS
 62
    1
 10
-1153.3707667826609
 20
1899.4798239061481
 11
-1164.182949523778
 21
1899.4798239061481
  0
LINE
  8
_0-2_SUNPOU
  6
CONTINUOUS
 62
    1
 10
-1163.682949523778
 20
1948.4798239061481
 11
-1163.682949523778
 21
1902.4798239061481
  0
SOLID
  8
_0-2_SUNPOU
  6
CONTINUOUS
 62
    1
 10
-1164.182949523778
 20
1948.4798239061481
 11
-1163.182949523778
 21
1948.4798239061481
 12
-1163.682949523778
 22
1951.4798239061481
 13
-1163.682949523778
 23
1951.4798239061481
  0
SOLID
  8
_0-2_SUNPOU
  6
CONTINUOUS
 62
    1
 10
-1164.182949523778
 20
1902.4798239061481
 11
-1163.182949523778
 21
1902.4798239061481
 12
-1163.682949523778
 22
1899.4798239061481
 13
-1163.682949523778
 23
1899.4798239061481
  0
TEXT
  8
_0-2_SUNPOU
 62
    7
 10
-1164.682949523778
 20
1923.7298239061481
 40
3.5
 41
1
 50
90
  1
52
  0
POINT
  8
_0-6_DEFPOINTS
 62
    7
 10
-1152.8707667826609
 20
1951.4798239061481
  0
POINT
  8
_0-6_DEFPOINTS
 62
    7
 10
-1152.8707667826609
 20
1899.4798239061481
  0
POINT
  8
_0-6_DEFPOINTS
 62
    7
 10
-1163.682949523778
 20
1899.4798239061481
  0
ENDBLK
  0
BLOCK
  2
-001-_D1
 70
   64
 10
0
 20
0
 30
0
  0
LINE
  8
_0-2_SUNPOU
  6
CONTINUOUS
 62
    1
 10
-1153.8707667826609
 20
1899.9798239061481
 11
-1153.8707667826609
 21
1889.668755770602
  0
LINE
  8
_0-2_SUNPOU
  6
CONTINUOUS
 62
    1
 10
-1040.8707667826609
 20
1899.9798239061481
 11
-1040.8707667826609
 21
1889.668755770602
  0
LINE
  8
_0-2_SUNPOU
  6
CONTINUOUS
 62
    1
 10
-1150.8707667826609
 20
1890.168755770602
 11
-1043.8707667826609
 21
1890.168755770602
  0
SOLID
  8
_0-2_SUNPOU
  6
CONTINUOUS
 62
    1
 10
-1150.8707667826609
 20
1890.668755770602
 11
-1150.8707667826609
 21
1889.668755770602
 12
-1153.8707667826609
 22
1890.168755770602
 13
-1153.8707667826609
 23
1890.168755770602
  0
SOLID
  8
_0-2_SUNPOU
  6
CONTINUOUS
 62
    1
 10
-1043.8707667826609
 20
1890.668755770602
 11
-1043.8707667826609
 21
1889.668755770602
 12
-1040.8707667826609
 22
1890.168755770602
 13
-1040.8707667826609
 23
1890.168755770602
  0
TEXT
  8
_0-2_SUNPOU
 62
    7
 10
-1106.4957682826609
 20
1891.168755770602
 40
3.5
 41
1
 50
0
  1
113
  0
POINT
  8
_0-6_DEFPOINTS
 62
    7
 10
-1153.8707667826609
 20
1900.4798239061481
  0
POINT
  8
_0-6_DEFPOINTS
 62
    7
 10
-1040.8707667826609
 20
1900.4798239061481
  0
POINT
  8
_0-6_DEFPOINTS
 62
    7
 10
-1040.8707667826609
 20
1890.168755770602
  0
ENDBLK
  0
BLOCK
  2
-002-_D2
 70
   64
 10
0
 20
0
 30
0
  0
LINE
  8
_0-2_SUNPOU
  6
CONTINUOUS
 62
    7
 10
-1148.3707667826609
 20
1639.4798239061481
 11
-1029.4251868523299
 21
1639.4798239061481
  0
LINE
  8
_0-2_SUNPOU
  6
CONTINUOUS
 62
    7
 10
-1043.3707667826609
 20
1595.4798239061481
 11
-1029.4251868523299
 21
1595.4798239061481
  0
LINE
  8
_0-2_SUNPOU
  6
CONTINUOUS
 62
    7
 10
-1029.9251868523299
 20
1636.4798239061481
 11
-1029.9251868523299
 21
1598.4798239061481
  0
SOLID
  8
_0-2_SUNPOU
  6
CONTINUOUS
 62
    7
 10
-1030.4251868523299
 20
1636.4798239061481
 11
-1029.4251868523299
 21
1636.4798239061481
 12
-1029.9251868523299
 22
1639.4798239061481
 13
-1029.9251868523299
 23
1639.4798239061481
  0
SOLID
  8
_0-2_SUNPOU
  6
CONTINUOUS
 62
    7
 10
-1030.4251868523299
 20
1598.4798239061481
 11
-1029.4251868523299
 21
1598.4798239061481
 12
-1029.9251868523299
 22
1595.4798239061481
 13
-1029.9251868523299
 23
1595.4798239061481
  0
TEXT
  8
_0-2_SUNPOU
 62
    7
 10
-1031.4501868523312
 20
1613.1923239061482
 40
2.4500000000000002
 41
1
 50
90
  1
44±0.2
  0
POINT
  8
_0-6_DEFPOINTS
 62
    7
 10
-1148.8707667826609
 20
1639.4798239061481
  0
POINT
  8
_0-6_DEFPOINTS
 62
    7
 10
-1043.8707667826609
 20
1595.4798239061481
  0
POINT
  8
_0-6_DEFPOINTS
 62
    7
 10
-1029.9251868523299
 20
1595.4798239061481
  0
ENDBLK
  0
BLOCK
  2
-003-_D3
 70
   64
 10
0
 20
0
 30
0
  0
LINE
  8
_0-2_SUNPOU
  6
CONTINUOUS
 62
    7
 10
-1043.8707667826609
 20
1595.9798239061481
 11
-1043.8707667826609
 21
1651.5133969323051
  0
LINE
  8
_0-2_SUNPOU
  6
CONTINUOUS
 62
    7
 10
-1148.8707667826609
 20
1639.9798239061481
 11
-1148.8707667826609
 21
1651.5133969323051
  0
LINE
  8
_0-2_SUNPOU
  6
CONTINUOUS
 62
    7
 10
-1046.8707667826609
 20
1651.0133969323051
 11
-1145.8707667826609
 21
1651.0133969323051
  0
SOLID
  8
_0-2_SUNPOU
  6
CONTINUOUS
 62
    7
 10
-1046.8707667826609
 20
1651.5133969323051
 11
-1046.8707667826609
 21
1650.5133969323051
 12
-1043.8707667826609
 22
1651.0133969323051
 13
-1043.8707667826609
 23
1651.0133969323051
  0
SOLID
  8
_0-2_SUNPOU
  6
CONTINUOUS
 62
    7
 10
-1145.8707667826609
 20
1651.5133969323051
 11
-1145.8707667826609
 21
1650.5133969323051
 12
-1148.8707667826609
 22
1651.0133969323051
 13
-1148.8707667826609
 23
1651.0133969323051
  0
TEXT
  8
_0-2_SUNPOU
 62
    7
 10
-1101.270766782661
 20
1652.5383969323052
 40
2.4500000000000002
 41
1
 50
0
  1
105±0.2
  0
POINT
  8
_0-6_DEFPOINTS
 62
    7
 10
-1043.8707667826609
 20
1595.4798239061481
  0
POINT
  8
_0-6_DEFPOINTS
 62
    7
 10
-1148.8707667826609
 20
1639.4798239061481
  0
POINT
  8
_0-6_DEFPOINTS
 62
    7
 10
-1148.8707667826609
 20
1651.0133969323051
  0
ENDBLK
  0
BLOCK
  2
-004-_D4
 70
   64
 10
0
 20
0
 30
0
  0
LINE
  8
_0-2_SUNPOU
  6
CONTINUOUS
 62
    1
 10
-1153.8707667826609
 20
1950.9798239061481
 11
-1153.8707667826609
 21
1962.4775559006159
  0
LINE
  8
_0-2_SUNPOU
  6
CONTINUOUS
 62
    1
 10
-1149.8707667826609
 20
1952.9798239061481
 11
-1149.8707667826609
 21
1962.4775559006159
  0
LINE
  8
_0-2_SUNPOU
  6
CONTINUOUS
 62
    1
 10
-1156.8707667826609
 20
1961.9775559006159
 11
-1159.8707667826609
 21
1961.9775559006159
  0
LINE
  8
_0-2_SUNPOU
  6
CONTINUOUS
 62
    1
 10
-1146.8707667826609
 20
1961.9775559006159
 11
-1143.8707667826609
 21
1961.9775559006159
  0
LINE
  8
_0-2_SUNPOU
  6
CONTINUOUS
 62
    1
 10
-1153.8707667826609
 20
1961.9775559006159
 11
-1149.8707667826609
 21
1961.9775559006159
  0
SOLID
  8
_0-2_SUNPOU
  6
CONTINUOUS
 62
    1
 10
-1156.8707667826609
 20
1962.4775559006159
 11
-1156.8707667826609
 21
1961.477555900615
 12
-1153.8707667826609
 22
1961.9775559006159
 13
-1153.8707667826609
 23
1961.9775559006159
  0
SOLID
  8
_0-2_SUNPOU
  6
CONTINUOUS
 62
    1
 10
-1146.8707667826609
 20
1962.4775559006159
 11
-1146.8707667826609
 21
1961.477555900615
 12
-1149.8707667826609
 22
1961.9775559006159
 13
-1149.8707667826609
 23
1961.9775559006159
  0
TEXT
  8
_0-2_SUNPOU
 62
    7
 10
-1152.7457667826609
 20
1962.9775559006159
 40
3.5
 41
1
 50
0
  1
4
  0
POINT
  8
_0-6_DEFPOINTS
 62
    7
 10
-1153.8707667826609
 20
1950.4798239061481
  0
POINT
  8
_0-6_DEFPOINTS
 62
    7
 10
-1149.8707667826609
 20
1952.4798239061481
  0
POINT
  8
_0-6_DEFPOINTS
 62
    7
 10
-1149.8707667826609
 20
1961.9775559006159
  0
ENDBLK
  0
BLOCK
  2
-005-_D5
 70
   64
 10
0
 20
0
 30
0
  0
LINE
  8
_0-2_SUNPOU
  6
CONTINUOUS
 62
    1
 10
-1149.8707667826609
 20
1952.9798239061481
 11
-1149.8707667826609
 21
1962.4775559006159
  0
LINE
  8
_0-2_SUNPOU
  6
CONTINUOUS
 62
    1
 10
-1044.8707667826609
 20
1908.9798239061481
 11
-1044.8707667826609
 21
1962.4775559006159
  0
LINE
  8
_0-2_SUNPOU
  6
CONTINUOUS
 62
    1
 10
-1146.8707667826609
 20
1961.9775559006159
 11
-1047.8707667826609
 21
1961.9775559006159
  0
SOLID
  8
_0-2_SUNPOU
  6
CONTINUOUS
 62
    1
 10
-1146.8707667826609
 20
1962.4775559006159
 11
-1146.8707667826609
 21
1961.477555900615
 12
-1149.8707667826609
 22
1961.9775559006159
 13
-1149.8707667826609
 23
1961.9775559006159
  0
SOLID
  8
_0-2_SUNPOU
  6
CONTINUOUS
 62
    1
 10
-1047.8707667826609
 20
1962.4775559006159
 11
-1047.8707667826609
 21
1961.477555900615
 12
-1044.8707667826609
 22
1961.9775559006159
 13
-1044.8707667826609
 23
1961.9775559006159
  0
TEXT
  8
_0-2_SUNPOU
 62
    7
 10
-1101.9957667826609
 20
1962.9775559006159
 40
3.5
 41
1
 50
0
  1
105
  0
POINT
  8
_0-6_DEFPOINTS
 62
    7
 10
-1149.8707667826609
 20
1952.4798239061481
  0
POINT
  8
_0-6_DEFPOINTS
 62
    7
 10
-1044.8707667826609
 20
1908.4798239061481
  0
POINT
  8
_0-6_DEFPOINTS
 62
    7
 10
-1044.8707667826609
 20
1961.9775559006159
  0
ENDBLK
  0
BLOCK
  2
-006-_D6
 70
   64
 10
0
 20
0
 30
0
  0
LINE
  8
_0-2_SUNPOU
  6
CONTINUOUS
 62
    1
 10
-1044.8707667826609
 20
1951.9798239061481
 11
-1044.8707667826609
 21
1962.4775559006159
  0
LINE
  8
_0-2_SUNPOU
  6
CONTINUOUS
 62
    1
 10
-1040.8707667826609
 20
1950.9798239061481
 11
-1040.8707667826609
 21
1962.4775559006159
  0
LINE
  8
_0-2_SUNPOU
  6
CONTINUOUS
 62
    1
 10
-1047.8707667826609
 20
1961.9775559006159
 11
-1050.8707667826609
 21
1961.9775559006159
  0
LINE
  8
_0-2_SUNPOU
  6
CONTINUOUS
 62
    1
 10
-1037.8707667826609
 20
1961.9775559006159
 11
-1034.8707667826609
 21
1961.9775559006159
  0
LINE
  8
_0-2_SUNPOU
  6
CONTINUOUS
 62
    1
 10
-1044.8707667826609
 20
1961.9775559006159
 11
-1040.8707667826609
 21
1961.9775559006159
  0
SOLID
  8
_0-2_SUNPOU
  6
CONTINUOUS
 62
    1
 10
-1047.8707667826609
 20
1962.4775559006159
 11
-1047.8707667826609
 21
1961.477555900615
 12
-1044.8707667826609
 22
1961.9775559006159
 13
-1044.8707667826609
 23
1961.9775559006159
  0
SOLID
  8
_0-2_SUNPOU
  6
CONTINUOUS
 62
    1
 10
-1037.8707667826609
 20
1962.4775559006159
 11
-1037.8707667826609
 21
1961.477555900615
 12
-1040.8707667826609
 22
1961.9775559006159
 13
-1040.8707667826609
 23
1961.9775559006159
  0
TEXT
  8
_0-2_SUNPOU
 62
    7
 10
-1043.7457667826609
 20
1962.9775559006159
 40
3.5
 41
1
 50
0
  1
4
  0
POINT
  8
_0-6_DEFPOINTS
 62
    7
 10
-1044.8707667826609
 20
1951.4798239061481
  0
POINT
  8
_0-6_DEFPOINTS
 62
    7
 10
-1040.8707667826609
 20
1950.4798239061481
  0
POINT
  8
_0-6_DEFPOINTS
 62
    7
 10
-1040.8707667826609
 20
1961.9775559006159
  0
ENDBLK
  0
BLOCK
  2
-007-_D7
 70
   64
 10
0
 20
0
 30
0
  0
LINE
  8
_0-2_SUNPOU
  6
CONTINUOUS
 62
    1
 10
-1041.3707667826609
 20
1899.4798239061481
 11
-1033.865385943215
 21
1899.4798239061481
  0
LINE
  8
_0-2_SUNPOU
  6
CONTINUOUS
 62
    1
 10
-1039.3707667826609
 20
1903.4798239061481
 11
-1033.865385943215
 21
1903.4798239061481
  0
LINE
  8
_0-2_SUNPOU
  6
CONTINUOUS
 62
    1
 10
-1034.3653859432161
 20
1896.4798239061481
 11
-1034.3653859432161
 21
1893.4798239061481
  0
LINE
  8
_0-2_SUNPOU
  6
CONTINUOUS
 62
    1
 10
-1034.3653859432161
 20
1906.4798239061481
 11
-1034.3653859432161
 21
1909.4798239061481
  0
LINE
  8
_0-2_SUNPOU
  6
CONTINUOUS
 62
    1
 10
-1034.3653859432161
 20
1899.4798239061481
 11
-1034.3653859432161
 21
1903.4798239061481
  0
SOLID
  8
_0-2_SUNPOU
  6
CONTINUOUS
 62
    1
 10
-1034.865385943215
 20
1896.4798239061481
 11
-1033.865385943215
 21
1896.4798239061481
 12
-1034.3653859432161
 22
1899.4798239061481
 13
-1034.3653859432161
 23
1899.4798239061481
  0
SOLID
  8
_0-2_SUNPOU
  6
CONTINUOUS
 62
    1
 10
-1034.865385943215
 20
1906.4798239061481
 11
-1033.865385943215
 21
1906.4798239061481
 12
-1034.3653859432161
 22
1903.4798239061481
 13
-1034.3653859432161
 23
1903.4798239061481
  0
TEXT
  8
_0-2_SUNPOU
 62
    7
 10
-1035.3653859432161
 20
1900.6048239061481
 40
3.5
 41
1
 50
90
  1
4
  0
POINT
  8
_0-6_DEFPOINTS
 62
    7
 10
-1041.8707667826609
 20
1899.4798239061481
  0
POINT
  8
_0-6_DEFPOINTS
 62
    7
 10
-1039.8707667826609
 20
1903.4798239061481
  0
POINT
  8
_0-6_DEFPOINTS
 62
    7
 10
-1034.3653859432161
 20
1903.4798239061481
  0
ENDBLK
  0
BLOCK
  2
-008-_D8
 70
   64
 10
0
 20
0
 30
0
  0
LINE
  8
_0-2_SUNPOU
  6
CONTINUOUS
 62
    1
 10
-1039.3707667826609
 20
1903.4798239061481
 11
-1033.865385943215
 21
1903.4798239061481
  0
LINE
  8
_0-2_SUNPOU
  6
CONTINUOUS
 62
    1
 10
-1144.3707667826609
 20
1947.4798239061481
 11
-1033.865385943215
 21
1947.4798239061481
  0
LINE
  8
_0-2_SUNPOU
  6
CONTINUOUS
 62
    1
 10
-1034.3653859432161
 20
1906.4798239061481
 11
-1034.3653859432161
 21
1944.4798239061481
  0
SOLID
  8
_0-2_SUNPOU
  6
CONTINUOUS
 62
    1
 10
-1034.865385943215
 20
1906.4798239061481
 11
-1033.865385943215
 21
1906.4798239061481
 12
-1034.3653859432161
 22
1903.4798239061481
 13
-1034.3653859432161
 23
1903.4798239061481
  0
SOLID
  8
_0-2_SUNPOU
  6
CONTINUOUS
 62
    1
 10
-1034.865385943215
 20
1944.4798239061481
 11
-1033.865385943215
 21
1944.4798239061481
 12
-1034.3653859432161
 22
1947.4798239061481
 13
-1034.3653859432161
 23
1947.4798239061481
  0
TEXT
  8
_0-2_SUNPOU
 62
    7
 10
-1035.3653859432161
 20
1923.7298239061481
 40
3.5
 41
1
 50
90
  1
44
  0
POINT
  8
_0-6_DEFPOINTS
 62
    7
 10
-1039.8707667826609
 20
1903.4798239061481
  0
POINT
  8
_0-6_DEFPOINTS
 62
    7
 10
-1144.8707667826609
 20
1947.4798239061481
  0
POINT
  8
_0-6_DEFPOINTS
 62
    7
 10
-1034.3653859432161
 20
1947.4798239061481
  0
ENDBLK
  0
BLOCK
  2
-009-_D9
 70
   64
 10
0
 20
0
 30
0
  0
LINE
  8
_0-2_SUNPOU
  6
CONTINUOUS
 62
    1
 10
-1144.3707667826609
 20
1947.4798239061481
 11
-1033.865385943215
 21
1947.4798239061481
  0
LINE
  8
_0-2_SUNPOU
  6
CONTINUOUS
 62
    1
 10
-1041.3707667826609
 20
1951.4798239061481
 11
-1033.865385943215
 21
1951.4798239061481
  0
LINE
  8
_0-2_SUNPOU
  6
CONTINUOUS
 62
    1
 10
-1034.3653859432161
 20
1944.4798239061481
 11
-1034.3653859432161
 21
1941.4798239061481
  0
LINE
  8
_0-2_SUNPOU
  6
CONTINUOUS
 62
    1
 10
-1034.3653859432161
 20
1954.4798239061481
 11
-1034.3653859432161
 21
1957.4798239061481
  0
LINE
  8
_0-2_SUNPOU
  6
CONTINUOUS
 62
    1
 10
-1034.3653859432161
 20
1947.4798239061481
 11
-1034.3653859432161
 21
1951.4798239061481
  0
SOLID
  8
_0-2_SUNPOU
  6
CONTINUOUS
 62
    1
 10
-1034.865385943215
 20
1944.4798239061481
 11
-1033.865385943215
 21
1944.4798239061481
 12
-1034.3653859432161
 22
1947.4798239061481
 13
-1034.3653859432161
 23
1947.4798239061481
  0
SOLID
  8
_0-2_SUNPOU
  6
CONTINUOUS
 62
    1
 10
-1034.865385943215
 20
1954.4798239061481
 11
-1033.865385943215
 21
1954.4798239061481
 12
-1034.3653859432161
 22
1951.4798239061481
 13
-1034.3653859432161
 23
1951.4798239061481
  0
TEXT
  8
_0-2_SUNPOU
 62
    7
 10
-1035.3653859432161
 20
1948.6048239061481
 40
3.5
 41
1
 50
90
  1
4
  0
POINT
  8
_0-6_DEFPOINTS
 62
    7
 10
-1144.8707667826609
 20
1947.4798239061481
  0
POINT
  8
_0-6_DEFPOINTS
 62
    7
 10
-1041.8707667826609
 20
1951.4798239061481
  0
POINT
  8
_0-6_DEFPOINTS
 62
    7
 10
-1034.3653859432161
 20
1951.4798239061481
  0
ENDBLK
  0
BLOCK
  2
-010-_D10
 70
   64
 10
0
 20
0
 30
0
  0
LINE
  8
_0-4_CL1
  6
CENTERX2
 62
    1
 10
-923.87076678266146
 20
1898.9798239061481
 11
-923.87076678266146
 21
1881.65924616087
  0
LINE
  8
_0-4_CL1
  6
CENTERX2
 62
    1
 10
-918.87076678266158
 20
1908.7341036608
 11
-918.87076678266158
 21
1881.65924616087
  0
LINE
  8
_0-4_CL1
  6
CENTERX2
 62
    1
 10
-926.87076678266158
 20
1882.15924616087
 11
-929.87076678266146
 21
1882.15924616087
  0
LINE
  8
_0-4_CL1
  6
CENTERX2
 62
    1
 10
-915.87076678266158
 20
1882.15924616087
 11
-912.87076678266146
 21
1882.15924616087
  0
LINE
  8
_0-4_CL1
  6
CENTERX2
 62
    1
 10
-923.87076678266146
 20
1882.15924616087
 11
-918.87076678266158
 21
1882.15924616087
  0
SOLID
  8
_0-4_CL1
  6
CONTINUOUS
 62
    1
 10
-926.87076678266158
 20
1882.65924616087
 11
-926.87076678266158
 21
1881.65924616087
 12
-923.87076678266146
 22
1882.15924616087
 13
-923.87076678266146
 23
1882.15924616087
  0
SOLID
  8
_0-4_CL1
  6
CONTINUOUS
 62
    1
 10
-915.87076678266158
 20
1882.65924616087
 11
-915.87076678266158
 21
1881.65924616087
 12
-918.87076678266158
 22
1882.15924616087
 13
-918.87076678266158
 23
1882.15924616087
  0
TEXT
  8
_0-4_CL1
 62
    7
 10
-922.24576678266158
 20
1883.15924616087
 40
3.5
 41
1
 50
0
  1
5
  0
POINT
  8
_0-6_DEFPOINTS
 62
    7
 10
-923.87076678266146
 20
1899.4798239061481
  0
POINT
  8
_0-6_DEFPOINTS
 62
    7
 10
-918.87076678266158
 20
1909.2341036608
  0
POINT
  8
_0-6_DEFPOINTS
 62
    7
 10
-918.87076678266158
 20
1882.15924616087
  0
ENDBLK
  0
BLOCK
  2
-011-_D11
 70
   64
 10
0
 20
0
 30
0
  0
LINE
  8
_0-2_SUNPOU
  6
CONTINUOUS
 62
    1
 10
-947.87076678266146
 20
1943.379823906148
 11
-947.87076678266146
 21
1881.65924616087
  0
LINE
  8
_0-2_SUNPOU
  6
CONTINUOUS
 62
    1
 10
-923.87076678266146
 20
1898.9798239061481
 11
-923.87076678266146
 21
1881.65924616087
  0
LINE
  8
_0-2_SUNPOU
  6
CONTINUOUS
 62
    1
 10
-944.87076678266146
 20
1882.15924616087
 11
-926.87076678266158
 21
1882.15924616087
  0
SOLID
  8
_0-2_SUNPOU
  6
CONTINUOUS
 62
    1
 10
-944.87076678266146
 20
1882.65924616087
 11
-944.87076678266146
 21
1881.65924616087
 12
-947.87076678266146
 22
1882.15924616087
 13
-947.87076678266146
 23
1882.15924616087
  0
SOLID
  8
_0-2_SUNPOU
  6
CONTINUOUS
 62
    1
 10
-926.87076678266158
 20
1882.65924616087
 11
-926.87076678266158
 21
1881.65924616087
 12
-923.87076678266146
 22
1882.15924616087
 13
-923.87076678266146
 23
1882.15924616087
  0
TEXT
  8
_0-2_SUNPOU
 62
    7
 10
-937.62076678266158
 20
1883.15924616087
 40
3.5
 41
1
 50
0
  1
24
  0
POINT
  8
_0-6_DEFPOINTS
 62
    7
 10
-947.87076678266146
 20
1943.879823906148
  0
POINT
  8
_0-6_DEFPOINTS
 62
    7
 10
-923.87076678266146
 20
1899.4798239061481
  0
POINT
  8
_0-6_DEFPOINTS
 62
    7
 10
-923.87076678266146
 20
1882.15924616087
  0
ENDBLK
  0
BLOCK
  2
-012-_D12
 70
   64
 10
0
 20
0
 30
0
  0
LINE
  8
_0-2_SUNPOU
  6
CONTINUOUS
 62
    1
 10
-923.87076678266146
 20
1898.9798239061481
 11
-923.87076678266146
 21
1891.7800227591299
  0
LINE
  8
_0-2_SUNPOU
  6
CONTINUOUS
 62
    1
 10
-925.87075678266172
 20
1899.2798239061481
 11
-925.87075678266172
 21
1891.7800227591299
  0
LINE
  8
_0-2_SUNPOU
  6
CONTINUOUS
 62
    1
 10
-921.87076678266146
 20
1892.2800227591299
 11
-919.87076678266146
 21
1892.2800227591299
  0
LINE
  8
_0-2_SUNPOU
  6
CONTINUOUS
 62
    1
 10
-927.8707567826616
 20
1892.2800227591299
 11
-929.8707567826616
 21
1892.2800227591299
  0
TEXT
  8
_0-2_SUNPOU
 62
    7
 10
-925.88562185986075
 20
1894.1562134347271
 40
3.5
 41
1
 50
0
  1
2
  0
LINE
  8
_0-2_SUNPOU
  6
CONTINUOUS
 62
    1
 10
-923.87076678266146
 20
1892.2800227591299
 11
-925.87075678266172
 21
1892.2800227591299
  0
SOLID
  8
_0-2_SUNPOU
  6
CONTINUOUS
 62
    1
 10
-921.87076678266146
 20
1892.6133560924641
 11
-921.87076678266146
 21
1891.9466894257971
 12
-923.87076678266146
 22
1892.2800227591299
 13
-923.87076678266146
 23
1892.2800227591299
  0
SOLID
  8
_0-2_SUNPOU
  6
CONTINUOUS
 62
    1
 10
-927.8707567826616
 20
1892.6133560924641
 11
-927.8707567826616
 21
1891.9466894257971
 12
-925.87075678266172
 22
1892.2800227591299
 13
-925.87075678266172
 23
1892.2800227591299
  0
POINT
  8
_0-6_DEFPOINTS
 62
    7
 10
-923.87076678266146
 20
1899.4798239061481
  0
POINT
  8
_0-6_DEFPOINTS
 62
    7
 10
-925.87075678266172
 20
1899.779823906149
  0
POINT
  8
_0-6_DEFPOINTS
 62
    7
 10
-925.87075678266172
 20
1892.2800227591299
  0
ENDBLK
  0
BLOCK
  2
-013-_D13
 70
   64
 10
0
 20
0
 30
0
  0
LINE
  8
_0-2_SUNPOU
  6
CONTINUOUS
 62
    1
 10
-1013.870770782661
 20
1919.5724041818289
 11
-1013.870770782661
 21
1863.6803715315209
  0
LINE
  8
_0-2_SUNPOU
  6
CONTINUOUS
 62
    1
 10
-923.87076678266146
 20
1898.9798239061481
 11
-923.87076678266146
 21
1863.6803715315209
  0
LINE
  8
_0-2_SUNPOU
  6
CONTINUOUS
 62
    1
 10
-1010.87077078266
 20
1864.1803715315209
 11
-926.87076678266158
 21
1864.1803715315209
  0
SOLID
  8
_0-2_SUNPOU
  6
CONTINUOUS
 62
    1
 10
-1010.87077078266
 20
1864.68037153152
 11
-1010.87077078266
 21
1863.6803715315209
 12
-1013.870770782661
 22
1864.1803715315209
 13
-1013.870770782661
 23
1864.1803715315209
  0
SOLID
  8
_0-2_SUNPOU
  6
CONTINUOUS
 62
    1
 10
-926.87076678266158
 20
1864.68037153152
 11
-926.87076678266158
 21
1863.6803715315209
 12
-923.87076678266146
 22
1864.1803715315209
 13
-923.87076678266146
 23
1864.1803715315209
  0
TEXT
  8
_0-2_SUNPOU
 62
    7
 10
-985.49576878266123
 20
1865.597884221876
 40
3.5
 41
1
 50
0
  1
CE-26等装着時　約90
  0
POINT
  8
_0-6_DEFPOINTS
 62
    7
 10
-1013.870770782661
 20
1920.0724041818289
  0
POINT
  8
_0-6_DEFPOINTS
 62
    7
 10
-923.87076678266146
 20
1899.4798239061481
  0
POINT
  8
_0-6_DEFPOINTS
 62
    7
 10
-923.87076678266146
 20
1864.1803715315209
  0
ENDBLK
  0
BLOCK
  2
-014-_D14
 70
   64
 10
0
 20
0
 30
0
  0
LINE
  8
_0-2_SUNPOU
  6
CONTINUOUS
 62
    1
 10
-1067.3707667826609
 20
1737.9798239061481
 11
-1067.3707667826609
 21
1702.801590071469
  0
LINE
  8
_0-2_SUNPOU
  6
CONTINUOUS
 62
    1
 10
-1127.3707667826609
 20
1737.9798239061481
 11
-1127.3707667826609
 21
1702.801590071469
  0
LINE
  8
_0-2_SUNPOU
  6
CONTINUOUS
 62
    1
 10
-1070.3707667826609
 20
1703.301590071469
 11
-1124.3707667826609
 21
1703.301590071469
  0
SOLID
  8
_0-2_SUNPOU
  6
CONTINUOUS
 62
    1
 10
-1070.3707667826609
 20
1703.801590071469
 11
-1070.3707667826609
 21
1702.801590071469
 12
-1067.3707667826609
 22
1703.301590071469
 13
-1067.3707667826609
 23
1703.301590071469
  0
SOLID
  8
_0-2_SUNPOU
  6
CONTINUOUS
 62
    1
 10
-1124.3707667826609
 20
1703.801590071469
 11
-1124.3707667826609
 21
1702.801590071469
 12
-1127.3707667826609
 22
1703.301590071469
 13
-1127.3707667826609
 23
1703.301590071469
  0
TEXT
  8
_0-2_SUNPOU
 62
    7
 10
-1099.1207667826609
 20
1704.301590071469
 40
3.5
 41
1
 50
0
  1
60
  0
POINT
  8
_0-6_DEFPOINTS
 62
    7
 10
-1067.3707667826609
 20
1738.4798239061481
  0
POINT
  8
_0-6_DEFPOINTS
 62
    7
 10
-1127.3707667826609
 20
1738.4798239061481
  0
POINT
  8
_0-6_DEFPOINTS
 62
    7
 10
-1127.3707667826609
 20
1703.301590071469
  0
ENDBLK
  0
BLOCK
  2
-015-_D15
 70
   64
 10
0
 20
0
 30
0
  0
LINE
  8
_0-2_SUNPOU
  6
CONTINUOUS
 62
    1
 10
-1097.8707667826609
 20
1753.4798239061481
 11
-1164.1723489278511
 21
1753.4798239061481
  0
LINE
  8
_0-2_SUNPOU
  6
CONTINUOUS
 62
    1
 10
-1097.8707667826609
 20
1723.4798239061481
 11
-1164.1723489278511
 21
1723.4798239061481
  0
LINE
  8
_0-2_SUNPOU
  6
CONTINUOUS
 62
    1
 10
-1163.6723489278511
 20
1750.4798239061481
 11
-1163.6723489278511
 21
1726.4798239061481
  0
SOLID
  8
_0-2_SUNPOU
  6
CONTINUOUS
 62
    1
 10
-1164.1723489278511
 20
1750.4798239061481
 11
-1163.1723489278511
 21
1750.4798239061481
 12
-1163.6723489278511
 22
1753.4798239061481
 13
-1163.6723489278511
 23
1753.4798239061481
  0
SOLID
  8
_0-2_SUNPOU
  6
CONTINUOUS
 62
    1
 10
-1164.1723489278511
 20
1726.4798239061481
 11
-1163.1723489278511
 21
1726.4798239061481
 12
-1163.6723489278511
 22
1723.4798239061481
 13
-1163.6723489278511
 23
1723.4798239061481
  0
TEXT
  8
_0-2_SUNPOU
 62
    7
 10
-1164.6723489278511
 20
1736.7298239061481
 40
3.5
 41
1
 50
90
  1
30
  0
POINT
  8
_0-6_DEFPOINTS
 62
    7
 10
-1097.3707667826609
 20
1753.4798239061481
  0
POINT
  8
_0-6_DEFPOINTS
 62
    7
 10
-1097.3707667826609
 20
1723.4798239061481
  0
POINT
  8
_0-6_DEFPOINTS
 62
    7
 10
-1163.6723489278511
 20
1723.4798239061481
  0
ENDBLK
  0
ENDSEC
  0
SECTION
  2
ENTITIES
  0
ARC
  8
_0-1_ZISSEN1
  6
CONTINUOUS
 62
    7
 10
351.13194888679527
 20
270.06461612439591
 40
2
 50
60.000000000002721
 51
119.61963666671421
  0
ARC
  8
_0-1_ZISSEN1
  6
CONTINUOUS
 62
    7
 10
351.13194888679527
 20
270.06461612439591
 40
2
 50
240.00000000001387
 51
300.38036333329438
  0
CIRCLE
  8
_0-7_SAISEN
  6
CONTINUOUS
 62
    1
 10
351.13194888679527
 20
270.06461612439591
 40
1.5
  0
ARC
  8
_0-1_ZISSEN1
  6
CONTINUOUS
 62
    7
 10
351.13194888679527
 20
270.06461612439591
 40
2
 50
149.34118170274587
 51
209.99999999998587
  0
ARC
  8
_0-1_ZISSEN1
  6
CONTINUOUS
 62
    7
 10
351.13194888679527
 20
270.06461612439591
 40
2
 50
330.65881829724941
 51
29.999999999997268
  0
CIRCLE
  8
_0-1_ZISSEN1
  6
CONTINUOUS
 62
    7
 10
351.13194888679527
 20
270.06461612439591
 40
1
  0
CIRCLE
  8
_0-7_SAISEN
  6
CONTINUOUS
 62
    1
 10
512.63195120663181
 20
240.06461612439591
 40
1.5
  0
ARC
  8
_0-1_ZISSEN1
  6
CONTINUOUS
 62
    7
 10
512.62764126269542
 20
240.06461612439591
 40
2
 50
60.000000000002721
 51
119.61963666671421
  0
ARC
  8
_0-1_ZISSEN1
  6
CONTINUOUS
 62
    7
 10
512.62764126269542
 20
240.06461612439591
 40
2
 50
330.65881829724941
 51
29.999999999997268
  0
ARC
  8
_0-1_ZISSEN1
  6
CONTINUOUS
 62
    7
 10
512.62764126269542
 20
240.06461612439591
 40
2
 50
240.00000000001387
 51
300.38036333329438
  0
ARC
  8
_0-1_ZISSEN1
  6
CONTINUOUS
 62
    7
 10
512.62764126269542
 20
240.06461612439591
 40
2
 50
149.34118170274587
 51
209.99999999998587
  0
CIRCLE
  8
_0-1_ZISSEN1
  6
CONTINUOUS
 62
    7
 10
512.63195120663181
 20
240.06461612439591
 40
1
  0
LINE
  8
_0-1_ZISSEN1
  6
CONTINUOUS
 62
    7
 10
382.80487088679524
 20
329.66461312439571
 11
375.20486088679513
 21
329.66461312439571
  0
LINE
  8
_0-1_ZISSEN1
  6
CONTINUOUS
 62
    7
 10
324.63194888679527
 20
329.66461312439571
 11
437.63194888679527
 21
329.66461312439571
  0
LINE
  8
_0-1_ZISSEN1
  6
CONTINUOUS
 62
    7
 10
324.63194888679527
 20
328.06461212439569
 11
437.63194888679527
 21
328.06461212439569
  0
LINE
  8
_0-1_ZISSEN1
  6
CONTINUOUS
 62
    7
 10
355.63193788679519
 20
374.66463294394487
 11
414.83194888679509
 21
374.66463294394487
  0
LINE
  8
_0-1_ZISSEN1
  6
CONTINUOUS
 62
    7
 10
324.63194888679527
 20
323.06461412439569
 11
437.63194888679527
 21
323.06461412439569
  0
LINE
  8
_0-1_ZISSEN1
  6
CONTINUOUS
 62
    7
 10
324.63194888679527
 20
321.06461612439591
 11
437.63194888679527
 21
321.06461612439591
  0
LINE
  8
_0-1_ZISSEN1
  6
CONTINUOUS
 62
    7
 10
343.13194888679527
 20
354.66462294394489
 11
343.13194888679527
 21
341.16461612439582
  0
LINE
  8
_0-1_ZISSEN1
  6
CONTINUOUS
 62
    7
 10
334.38983088679515
 20
329.66461312439571
 11
358.84984088679516
 21
329.66461312439571
  0
LINE
  8
_0-1_ZISSEN1
  6
CONTINUOUS
 62
    7
 10
347.24488088679527
 20
329.66461312439571
 11
339.64486088679519
 21
329.66461312439571
  0
LINE
  8
_0-1_ZISSEN1
  6
CONTINUOUS
 62
    7
 10
331.3319518867952
 20
328.06461212439569
 11
331.3319518867952
 21
323.06461412439569
  0
LINE
  8
_0-1_ZISSEN1
  6
CONTINUOUS
 62
    7
 10
324.93194488679524
 20
328.06461212439569
 11
324.93194488679524
 21
323.06461412439569
  0
LINE
  8
_0-1_ZISSEN1
  6
CONTINUOUS
 62
    7
 10
325.63194888679527
 20
323.06461412439569
 11
325.63194888679527
 21
321.06461612439591
  0
LINE
  8
_0-1_ZISSEN1
  6
CONTINUOUS
 62
    7
 10
324.63194888679527
 20
323.06461412439569
 11
324.63194888679527
 21
321.06461612439591
  0
LINE
  8
_0-1_ZISSEN1
  6
CONTINUOUS
 62
    7
 10
325.63194888679527
 20
328.06461212439569
 11
325.63194888679527
 21
329.66461312439571
  0
LINE
  8
_0-1_ZISSEN1
  6
CONTINUOUS
 62
    7
 10
324.63194888679527
 20
328.06461212439569
 11
324.63194888679527
 21
329.66461312439571
  0
LINE
  8
_0-1_ZISSEN1
  6
CONTINUOUS
 62
    7
 10
334.63194888679527
 20
341.16459512439576
 11
379.13194888679527
 21
341.16459512439576
  0
LINE
  8
_0-1_ZISSEN1
  6
CONTINUOUS
 62
    7
 10
365.02487088679527
 20
329.66461312439571
 11
357.42486088679516
 21
329.66461312439571
  0
LINE
  8
_0-1_ZISSEN1
  6
CONTINUOUS
 62
    7
 10
354.86486088679521
 20
329.66461312439571
 11
347.26483088679515
 21
329.66461312439571
  0
LINE
  8
_0-1_ZISSEN1
  6
CONTINUOUS
 62
    7
 10
379.13194888679527
 20
341.16459512439576
 11
379.13194888679527
 21
329.66461312439571
  0
LINE
  8
_0-1_ZISSEN1
  6
CONTINUOUS
 62
    7
 10
334.63194888679527
 20
329.66461312439571
 11
334.63194888679527
 21
341.16459512439576
  0
LINE
  8
_0-1_ZISSEN1
  6
CONTINUOUS
 62
    7
 10
357.03194888679513
 20
341.16459512439576
 11
357.03194888679513
 21
329.66461312439571
  0
LINE
  8
_0-1_ZISSEN1
  6
CONTINUOUS
 62
    7
 10
372.64485088679521
 20
329.66461312439571
 11
365.04483088679513
 21
329.66461312439571
  0
LINE
  8
_0-1_ZISSEN1
  6
CONTINUOUS
 62
    7
 10
355.63193788679519
 20
374.66463294394487
 11
355.63193788679519
 21
354.66462294394489
  0
LINE
  8
_0-1_ZISSEN1
  6
CONTINUOUS
 62
    7
 10
349.83194888679509
 20
374.66463294394487
 11
349.83194888679509
 21
366.25461612439574
  0
LINE
  8
_0-1_ZISSEN1
  6
CONTINUOUS
 62
    7
 10
342.43194888679523
 20
374.66463294394487
 11
342.43194888679523
 21
366.25461612439574
  0
LINE
  8
_0-1_ZISSEN1
  6
CONTINUOUS
 62
    7
 10
349.13194888679527
 20
366.25461612439574
 11
349.13194888679527
 21
354.66461294394469
  0
LINE
  8
_0-1_ZISSEN1
  6
CONTINUOUS
 62
    7
 10
343.13194888679527
 20
366.25461612439574
 11
343.13194888679527
 21
354.66461294394469
  0
LINE
  8
_0-1_ZISSEN1
  6
CONTINUOUS
 62
    7
 10
343.13194888679527
 20
354.66461294394469
 11
355.63193788679519
 21
354.66461294394469
  0
LINE
  8
_0-1_ZISSEN1
  6
CONTINUOUS
 62
    7
 10
349.83194888679509
 20
366.25461612439574
 11
342.43194888679523
 21
366.25461612439574
  0
LINE
  8
_0-1_ZISSEN1
  6
CONTINUOUS
 62
    7
 10
342.43194888679523
 20
374.66463294394487
 11
349.83194888679509
 21
374.66463294394487
  0
LINE
  8
_0-1_ZISSEN1
  6
CONTINUOUS
 62
    7
 10
427.33194888679509
 20
354.66462294394489
 11
427.33194888679509
 21
341.16458917634884
  0
LINE
  8
_0-1_ZISSEN1
  6
CONTINUOUS
 62
    7
 10
392.9848608867951
 20
341.16459512439576
 11
379.13194888679527
 21
341.16459512439576
  0
LINE
  8
_0-1_ZISSEN1
  6
CONTINUOUS
 62
    7
 10
400.58487088679522
 20
329.66461312439571
 11
392.9848608867951
 21
329.66461312439571
  0
LINE
  8
_0-1_ZISSEN1
  6
CONTINUOUS
 62
    7
 10
392.83194888679509
 20
329.66461312439571
 11
392.83194888679509
 21
341.16459512439576
  0
LINE
  8
_0-1_ZISSEN1
  6
CONTINUOUS
 62
    7
 10
390.42486088679516
 20
329.66461312439571
 11
382.82484088679507
 21
329.66461312439571
  0
LINE
  8
_0-1_ZISSEN1
  6
CONTINUOUS
 62
    7
 10
427.63194888679527
 20
341.16458912439577
 11
427.63194888679527
 21
329.66460112439574
  0
LINE
  8
_0-1_ZISSEN1
  6
CONTINUOUS
 62
    7
 10
410.23194888679518
 20
329.66460112439574
 11
410.23194888679518
 21
341.16458912439577
  0
LINE
  8
_0-1_ZISSEN1
  6
CONTINUOUS
 62
    7
 10
408.20484088679518
 20
329.66460112439574
 11
400.60484088679527
 21
329.66460112439574
  0
LINE
  8
_0-1_ZISSEN1
  6
CONTINUOUS
 62
    7
 10
392.9848608867951
 20
341.16459512439576
 11
427.63194888679527
 21
341.16458912439577
  0
LINE
  8
_0-1_ZISSEN1
  6
CONTINUOUS
 62
    7
 10
437.33194888679509
 20
328.06461212439569
 11
437.33194888679509
 21
323.06461412439569
  0
LINE
  8
_0-1_ZISSEN1
  6
CONTINUOUS
 62
    7
 10
430.93194888679523
 20
328.06461212439569
 11
430.93194888679523
 21
323.06461412439569
  0
LINE
  8
_0-1_ZISSEN1
  6
CONTINUOUS
 62
    7
 10
436.63194888679527
 20
323.06460112439584
 11
436.63194888679527
 21
321.06461612439591
  0
LINE
  8
_0-1_ZISSEN1
  6
CONTINUOUS
 62
    7
 10
437.63194888679527
 20
323.06461412439569
 11
437.63194888679527
 21
321.06461612439591
  0
LINE
  8
_0-1_ZISSEN1
  6
CONTINUOUS
 62
    7
 10
328.28193888679516
 20
338.16461312439571
 11
326.63194888679527
 21
334.1646311243959
  0
LINE
  8
_0-1_ZISSEN1
  6
CONTINUOUS
 62
    7
 10
332.28193888679516
 20
338.16461312439571
 11
333.93193888679525
 21
334.1646311243959
  0
LINE
  8
_0-1_ZISSEN1
  6
CONTINUOUS
 62
    7
 10
333.93193888679525
 20
329.66461612439582
 11
326.63194888679527
 21
329.66461612439582
  0
LINE
  8
_0-1_ZISSEN1
  6
CONTINUOUS
 62
    7
 10
326.63194888679527
 20
334.1646311243959
 11
326.63194888679527
 21
329.66461612439582
  0
LINE
  8
_0-1_ZISSEN1
  6
CONTINUOUS
 62
    7
 10
429.63194888679527
 20
328.06461212439569
 11
429.63194888679527
 21
329.66461312439571
  0
LINE
  8
_0-1_ZISSEN1
  6
CONTINUOUS
 62
    7
 10
437.63194888679527
 20
328.06461212439569
 11
437.63194888679527
 21
329.66461312439571
  0
LINE
  8
_0-1_ZISSEN1
  6
CONTINUOUS
 62
    7
 10
333.93193888679525
 20
334.1646311243959
 11
333.93193888679525
 21
329.66461612439582
  0
LINE
  8
_0-1_ZISSEN1
  6
CONTINUOUS
 62
    7
 10
332.28193888679516
 20
338.16461312439571
 11
328.28193888679516
 21
338.16461312439571
  0
LINE
  8
_0-1_ZISSEN1
  6
CONTINUOUS
 62
    7
 10
414.83194888679509
 20
354.66461294394469
 11
427.33194888679509
 21
354.66462294394489
  0
LINE
  8
_0-1_ZISSEN1
  6
CONTINUOUS
 62
    7
 10
421.03194888679513
 20
366.25461612439574
 11
428.03194888679513
 21
366.25461612439574
  0
LINE
  8
_0-1_ZISSEN1
  6
CONTINUOUS
 62
    7
 10
421.03194888679513
 20
374.66463294394487
 11
428.03194888679513
 21
374.66463294394487
  0
LINE
  8
_0-1_ZISSEN1
  6
CONTINUOUS
 62
    7
 10
414.83194888679509
 20
374.66463294394487
 11
414.83194888679509
 21
354.66461294394469
  0
LINE
  8
_0-1_ZISSEN1
  6
CONTINUOUS
 62
    7
 10
421.03194888679513
 20
374.66463294394487
 11
421.03194888679513
 21
366.25461612439574
  0
LINE
  8
_0-1_ZISSEN1
  6
CONTINUOUS
 62
    7
 10
428.03194888679513
 20
374.66463294394487
 11
428.03194888679513
 21
366.25461612439574
  0
LINE
  8
_0-1_ZISSEN1
  6
CONTINUOUS
 62
    7
 10
427.33194888679509
 20
366.25461612439574
 11
427.33194888679509
 21
354.66462294394489
  0
LINE
  8
_0-1_ZISSEN1
  6
CONTINUOUS
 62
    7
 10
421.73191788679515
 20
366.25461612439574
 11
421.73191788679515
 21
354.66461294394469
  0
CIRCLE
  8
_0-1_ZISSEN1
  6
CONTINUOUS
 62
    7
 10
424.33194888679509
 20
477.06461612439591
 40
3.7000000000000002
  0
CIRCLE
  8
_0-1_ZISSEN1
  6
CONTINUOUS
 62
    7
 10
346.13194888679527
 20
477.06461612439591
 40
3.7000000000000002
  0
LINE
  8
_0-1_ZISSEN1
  6
CONTINUOUS
 62
    7
 10
355.6319268867951
 20
471.56461612439591
 11
355.6319268867951
 21
483.06463612439586
  0
LINE
  8
_0-1_ZISSEN1
  6
CONTINUOUS
 62
    7
 10
414.83194888679509
 20
471.56461612439591
 11
414.83194888679509
 21
483.06463612439586
  0
LINE
  8
_0-1_ZISSEN1
  6
CONTINUOUS
 62
    7
 10
343.13194888679527
 20
483.06463612439586
 11
343.13194888679527
 21
471.56461612439591
  0
LINE
  8
_0-1_ZISSEN1
  6
CONTINUOUS
 62
    7
 10
427.33194888679509
 20
483.06463612439586
 11
427.33194888679509
 21
471.56461612439591
  0
LINE
  8
_0-1_ZISSEN1
  6
CONTINUOUS
 62
    7
 10
343.13194888679527
 20
471.56461612439591
 11
427.33194888679509
 21
471.56461612439591
  0
LINE
  8
_0-1_ZISSEN1
  6
CONTINUOUS
 62
    7
 10
325.63194888679527
 20
431.06461612439591
 11
436.63194888679527
 21
431.06461612439591
  0
LINE
  8
_0-1_ZISSEN1
  6
CONTINUOUS
 62
    7
 10
324.63194888679527
 20
482.06461612439591
 11
324.63194888679527
 21
432.06461612439591
  0
LINE
  8
_0-1_ZISSEN1
  6
CONTINUOUS
 62
    7
 10
356.99196888679512
 20
431.08463612439584
 11
334.63194888679527
 21
431.06461612439591
  0
LINE
  8
_0-1_ZISSEN1
  6
CONTINUOUS
 62
    7
 10
356.99196888679512
 20
438.66461612439582
 11
334.59193888679511
 21
438.66461612439582
  0
LINE
  8
_0-1_ZISSEN1
  6
CONTINUOUS
 62
    7
 10
357.03194888679513
 20
438.66461612439582
 11
357.03194888679513
 21
431.06461612439591
  0
LINE
  8
_0-1_ZISSEN1
  6
CONTINUOUS
 62
    7
 10
334.63194888679527
 20
438.66461612439582
 11
334.63194888679527
 21
431.06461612439591
  0
LINE
  8
_0-1_ZISSEN1
  6
CONTINUOUS
 62
    7
 10
437.63194888679527
 20
482.06461612439591
 11
437.63194888679527
 21
432.06461612439591
  0
LINE
  8
_0-1_ZISSEN1
  6
CONTINUOUS
 62
    7
 10
343.13194888679527
 20
483.06463612439586
 11
428.1319268867951
 21
483.06463612439586
  0
LINE
  8
_0-1_ZISSEN1
  6
CONTINUOUS
 62
    7
 10
325.63194888679527
 20
483.06461612439591
 11
436.63194888679527
 21
483.06461612439591
  0
LINE
  8
_0-1_ZISSEN1
  6
CONTINUOUS
 62
    7
 10
410.23198888679508
 20
431.06461612439591
 11
392.83194888679509
 21
431.06461612439591
  0
LINE
  8
_0-1_ZISSEN1
  6
CONTINUOUS
 62
    7
 10
410.23198888679508
 20
438.66461612439582
 11
392.83194888679509
 21
438.66461612439582
  0
LINE
  8
_0-1_ZISSEN1
  6
CONTINUOUS
 62
    7
 10
410.23198888679508
 20
438.66459612439587
 11
410.23198888679508
 21
431.06461612439591
  0
LINE
  8
_0-1_ZISSEN1
  6
CONTINUOUS
 62
    7
 10
392.83194888679509
 20
438.66461612439582
 11
392.83194888679509
 21
431.06461612439591
  0
LINE
  8
_0-1_ZISSEN1
  6
CONTINUOUS
 62
    7
 10
547.63196888679454
 20
483.06461612439591
 11
547.63196888679454
 21
431.06461612439591
  0
LINE
  8
_0-1_ZISSEN1
  6
CONTINUOUS
 62
    7
 10
546.03194888679468
 20
483.06461612439591
 11
546.03194888679468
 21
431.06461612439591
  0
LINE
  8
_0-1_ZISSEN1
  6
CONTINUOUS
 62
    7
 10
509.44195888679474
 20
480.5578661243959
 11
509.44195888679474
 21
473.31462612439589
  0
LINE
  8
_0-1_ZISSEN1
  6
CONTINUOUS
 62
    7
 10
521.03196888679474
 20
483.06462612439589
 11
521.03196888679474
 21
471.56461612439591
  0
LINE
  8
_0-1_ZISSEN1
  6
CONTINUOUS
 62
    7
 10
535.63194888679459
 20
483.06462612439589
 11
535.63194888679459
 21
472.06461612439591
  0
LINE
  8
_0-1_ZISSEN1
  6
CONTINUOUS
 62
    7
 10
501.03194888679479
 20
480.5578661243959
 11
501.03194888679479
 21
471.56461612439591
  0
LINE
  8
_0-1_ZISSEN1
  6
CONTINUOUS
 62
    7
 10
552.63195888679445
 20
483.06461612439591
 11
552.63195888679445
 21
431.06461612439591
  0
LINE
  8
_0-1_ZISSEN1
  6
CONTINUOUS
 62
    7
 10
554.6319488867947
 20
483.06461612439591
 11
554.6319488867947
 21
431.06461612439591
  0
LINE
  8
_0-1_ZISSEN1
  6
CONTINUOUS
 62
    7
 10
501.03194888679479
 20
471.56461612439591
 11
534.53197888679472
 21
471.56461612439591
  0
LINE
  8
_0-1_ZISSEN1
  6
CONTINUOUS
 62
    7
 10
501.03194888679479
 20
473.31462612439589
 11
509.44195888679474
 21
473.31462612439589
  0
LINE
  8
_0-1_ZISSEN1
  6
CONTINUOUS
 62
    7
 10
546.03194888679468
 20
446.6216161243957
 11
546.03194888679468
 21
434.6216161243957
  0
LINE
  8
_0-1_ZISSEN1
  6
CONTINUOUS
 62
    7
 10
547.63196888679454
 20
431.56461612439591
 11
546.03194888679468
 21
431.56461612439591
  0
LINE
  8
_0-1_ZISSEN1
  6
CONTINUOUS
 62
    7
 10
547.63196888679454
 20
431.06461612439591
 11
546.03194888679468
 21
431.06461612439591
  0
LINE
  8
_0-1_ZISSEN1
  6
CONTINUOUS
 62
    7
 10
552.63195888679445
 20
431.06461612439591
 11
554.6319488867947
 21
431.06461612439591
  0
LINE
  8
_0-1_ZISSEN1
  6
CONTINUOUS
 62
    7
 10
552.63195888679445
 20
432.06461612439591
 11
554.6319488867947
 21
432.06461612439591
  0
LINE
  8
_0-1_ZISSEN1
  6
CONTINUOUS
 62
    7
 10
547.63196888679454
 20
431.36461612439678
 11
552.63195888679445
 21
431.36461612439678
  0
LINE
  8
_0-1_ZISSEN1
  6
CONTINUOUS
 62
    7
 10
547.63196888679454
 20
437.76460612439575
 11
552.63195888679445
 21
437.76460612439575
  0
LINE
  8
_0-1_ZISSEN1
  6
CONTINUOUS
 62
    7
 10
534.53194876350449
 20
451.06461626475482
 11
534.53197888679472
 21
458.66461612439582
  0
LINE
  8
_0-1_ZISSEN1
  6
CONTINUOUS
 62
    7
 10
546.03194888679468
 20
454.22661612439572
 11
546.03194888679468
 21
481.62661612439672
  0
LINE
  8
_0-1_ZISSEN1
  6
CONTINUOUS
 62
    7
 10
546.03194888679468
 20
459.26659612439573
 11
546.03194888679468
 21
481.66662612439575
  0
LINE
  8
_0-1_ZISSEN1
  6
CONTINUOUS
 62
    7
 10
534.53197888679472
 20
461.06461612439591
 11
534.53197888679472
 21
472.06461612439591
  0
LINE
  8
_0-1_ZISSEN1
  6
CONTINUOUS
 62
    7
 10
534.53197888679472
 20
458.66461612439582
 11
546.03194888679468
 21
458.66461612439582
  0
LINE
  8
_0-1_ZISSEN1
  6
CONTINUOUS
 62
    7
 10
534.53197888679472
 20
461.06461612439591
 11
546.03194888679468
 21
461.06461612439591
  0
LINE
  8
_0-1_ZISSEN1
  6
CONTINUOUS
 62
    7
 10
546.03194888679468
 20
439.06461612439591
 11
547.63196888679454
 21
439.06461612439591
  0
LINE
  8
_0-1_ZISSEN1
  6
CONTINUOUS
 62
    7
 10
534.53197888679472
 20
472.06461612439591
 11
546.03194888679468
 21
472.06461612439591
  0
LINE
  8
_0-1_ZISSEN1
  6
CONTINUOUS
 62
    7
 10
501.03194888679479
 20
483.06462612439589
 11
539.93193888679457
 21
483.06462612439589
  0
LINE
  8
_0-1_ZISSEN1
  6
CONTINUOUS
 62
    7
 10
509.44195888679474
 20
480.31460612439571
 11
521.03196888679474
 21
480.31460612439571
  0
LINE
  8
_0-1_ZISSEN1
  6
CONTINUOUS
 62
    7
 10
509.44195888679474
 20
474.31463612439586
 11
521.03196888679474
 21
474.31463612439586
  0
LINE
  8
_0-1_ZISSEN1
  6
CONTINUOUS
 62
    7
 10
501.03194888679479
 20
481.31460612439571
 11
509.44195888679474
 21
481.31460612439571
  0
LINE
  8
_0-1_ZISSEN1
  6
CONTINUOUS
 62
    7
 10
501.03194888679479
 20
483.06459612439573
 11
501.03194888679479
 21
480.5578661243959
  0
LINE
  8
_0-1_ZISSEN1
  6
CONTINUOUS
 62
    7
 10
509.44195888679474
 20
480.5578661243959
 11
509.44195888679474
 21
481.31460612439571
  0
LINE
  8
_0-1_ZISSEN1
  6
CONTINUOUS
 62
    7
 10
539.93193888679457
 20
483.06462612439589
 11
546.03194888679468
 21
483.06462612439589
  0
LINE
  8
_0-1_ZISSEN1
  6
CONTINUOUS
 62
    7
 10
547.63196888679454
 20
482.3574861243959
 11
546.03194888679468
 21
482.3574861243959
  0
LINE
  8
_0-1_ZISSEN1
  6
CONTINUOUS
 62
    7
 10
547.63196888679454
 20
483.06461612439591
 11
546.03194888679468
 21
483.06461612439591
  0
LINE
  8
_0-1_ZISSEN1
  6
CONTINUOUS
 62
    7
 10
552.63195888679445
 20
482.3574861243959
 11
554.6319488867947
 21
482.3574861243959
  0
LINE
  8
_0-1_ZISSEN1
  6
CONTINUOUS
 62
    7
 10
547.63196888679454
 20
476.36458612439571
 11
552.63195888679445
 21
476.36458612439571
  0
LINE
  8
_0-1_ZISSEN1
  6
CONTINUOUS
 62
    7
 10
552.63195888679445
 20
483.06461612439591
 11
554.6319488867947
 21
483.06461612439591
  0
LINE
  8
_0-1_ZISSEN1
  6
CONTINUOUS
 62
    7
 10
547.63196888679454
 20
482.76459612439578
 11
552.63195888679445
 21
482.76459612439578
  0
TEXT
  8
_0-1_ZISSEN1
 62
    7
 10
207.16169841762712
 20
477.4586058209328
 40
5
 41
1
 50
0
  1
CB-25A/4C No.SS0001f55
  0
LINE
  8
_0-3_KAKURESEN1
  6
DASHEDX2
 62
    3
 10
348.13194888679527
 20
316.06461612439591
 11
354.13194888679527
 21
316.06461612439591
  0
LINE
  8
_0-1_ZISSEN1
  6
CONTINUOUS
 62
    7
 10
348.13194888679527
 20
309.06461612439591
 11
354.13194888679527
 21
309.06461612439591
  0
LINE
  8
_0-1_ZISSEN1
  6
CONTINUOUS
 62
    7
 10
348.13194888679527
 20
309.06461612439591
 11
348.13194888679527
 21
321.06461612439591
  0
LINE
  8
_0-1_ZISSEN1
  6
CONTINUOUS
 62
    7
 10
354.13194888679527
 20
309.06461612439591
 11
354.13194888679527
 21
321.06461612439591
  0
LINE
  8
_0-3_KAKURESEN1
  6
DASHEDX2
 62
    3
 10
414.13194888679527
 20
316.06461612439591
 11
408.13194888679527
 21
316.06461612439591
  0
LINE
  8
_0-1_ZISSEN1
  6
CONTINUOUS
 62
    7
 10
408.13194888679527
 20
309.06461612439591
 11
414.13194888679527
 21
309.06461612439591
  0
LINE
  8
_0-1_ZISSEN1
  6
CONTINUOUS
 62
    7
 10
408.13194888679527
 20
309.06461612439591
 11
408.13194888679527
 21
321.06461612439591
  0
LINE
  8
_0-1_ZISSEN1
  6
CONTINUOUS
 62
    7
 10
414.13194888679527
 20
309.06461612439591
 11
414.13194888679527
 21
321.06461612439591
  0
LINE
  8
_0-1_ZISSEN1
  6
CONTINUOUS
 62
    7
 10
559.63194888679459
 20
440.81889587904777
 11
559.63194888679459
 21
454.98695587904774
  0
LINE
  8
_0-1_ZISSEN1
  6
CONTINUOUS
 62
    7
 10
554.6319488867947
 20
471.53513587904774
 11
554.6319488867947
 21
442.60184587904871
  0
LINE
  8
_0-1_ZISSEN1
  6
CONTINUOUS
 62
    7
 10
564.19990888679479
 20
439.42563587904885
 11
564.78034888679463
 21
438.99031587904881
  0
LINE
  8
_0-1_ZISSEN1
  6
CONTINUOUS
 62
    7
 10
564.78034888679463
 20
438.99031587904881
 11
565.36079888679467
 21
438.40986587904774
  0
LINE
  8
_0-1_ZISSEN1
  6
CONTINUOUS
 62
    7
 10
565.36079888679467
 20
438.40986587904774
 11
565.36079888679467
 21
437.68430587904879
  0
LINE
  8
_0-1_ZISSEN1
  6
CONTINUOUS
 62
    7
 10
565.36079888679467
 20
437.68430587904879
 11
565.36079888679467
 21
437.53920587904884
  0
LINE
  8
_0-1_ZISSEN1
  6
CONTINUOUS
 62
    7
 10
565.65103888679482
 20
436.95873587904873
 11
565.5059188867948
 21
437.68430587904879
  0
LINE
  8
_0-1_ZISSEN1
  6
CONTINUOUS
 62
    7
 10
565.5059188867948
 20
437.68430587904879
 11
565.36079888679467
 21
437.82940587904875
  0
ARC
  8
_0-1_ZISSEN1
  6
CONTINUOUS
 62
    7
 10
563.96429888679472
 20
437.11179587904883
 40
0.3902874
 50
280.00000000000608
 51
89.999984000003622
  0
LINE
  8
_0-1_ZISSEN1
  6
CONTINUOUS
 62
    7
 10
560.66841888679471
 20
439.06323587904774
 11
560.83541888679463
 21
439.68643587904887
  0
LINE
  8
_0-1_ZISSEN1
  6
CONTINUOUS
 62
    7
 10
560.86233888679487
 20
439.71585587904872
 11
561.29768888679473
 21
439.71585587904872
  0
LINE
  8
_0-1_ZISSEN1
  6
CONTINUOUS
 62
    7
 10
561.29768888679473
 20
439.71585587904872
 11
561.87812888679468
 21
439.71585587904872
  0
LINE
  8
_0-1_ZISSEN1
  6
CONTINUOUS
 62
    7
 10
561.87812888679468
 20
439.71585587904872
 11
562.45857888679461
 21
439.71585587904872
  0
LINE
  8
_0-1_ZISSEN1
  6
CONTINUOUS
 62
    7
 10
562.45857888679461
 20
439.71585587904872
 11
563.03901888679491
 21
439.71585587904872
  0
LINE
  8
_0-1_ZISSEN1
  6
CONTINUOUS
 62
    7
 10
563.03901888679491
 20
439.71585587904872
 11
563.61945888679475
 21
439.71585587904872
  0
LINE
  8
_0-1_ZISSEN1
  6
CONTINUOUS
 62
    7
 10
559.41948888679497
 20
439.06323587904774
 11
557.30734888679478
 21
439.62917587904883
  0
LINE
  8
_0-1_ZISSEN1
  6
CONTINUOUS
 62
    7
 10
559.21396888679465
 20
437.50208587904774
 11
556.79922888679482
 21
438.14909587904788
  0
LINE
  8
_0-1_ZISSEN1
  6
CONTINUOUS
 62
    7
 10
558.76444888679475
 20
440.31624587904787
 11
557.57673888679471
 21
440.63447587904773
  0
ARC
  8
_0-1_ZISSEN1
  6
CONTINUOUS
 62
    7
 10
558.81887114477001
 20
441.2222281588439
 40
0.9076190514201122
 50
266.56017472321167
 51
333.61600291458029
  0
ARC
  8
_0-1_ZISSEN1
  6
CONTINUOUS
 62
    7
 10
557.44202888679479
 20
440.13182587904782
 40
0.5203829
 50
75.000000000005556
 51
254.99998000000443
  0
LINE
  8
_0-1_ZISSEN1
  6
CONTINUOUS
 62
    7
 10
559.41948888679497
 20
439.06323587904774
 11
560.66841888679471
 21
439.06323587904774
  0
LINE
  8
_0-1_ZISSEN1
  6
CONTINUOUS
 62
    7
 10
560.77246888679485
 20
436.15264587904778
 11
564.03206888679472
 21
436.72745587904876
  0
LINE
  8
_0-1_ZISSEN1
  6
CONTINUOUS
 62
    7
 10
559.21396888679465
 20
437.50208587904774
 11
563.96429888679472
 21
437.50208587904774
  0
LINE
  8
_0-1_ZISSEN1
  6
CONTINUOUS
 62
    7
 10
563.61945888679475
 20
439.71585587904872
 11
564.19990888679479
 21
439.42563587904885
  0
LINE
  8
_0-1_ZISSEN1
  6
CONTINUOUS
 62
    7
 10
555.25643888679474
 20
441.35291587904874
 11
555.25643888679474
 21
440.15971587904789
  0
ARC
  8
_0-1_ZISSEN1
  6
CONTINUOUS
 62
    7
 10
553.69529888679483
 20
441.35291587904874
 40
1.5611496
 50
0
 51
53.130186999997498
  0
ARC
  8
_0-1_ZISSEN1
  6
CONTINUOUS
 62
    7
 10
557.33795888679469
 20
440.15971587904789
 40
2.0815328999999991
 50
180
 51
255.00000000000551
  0
ARC
  8
_0-1_ZISSEN1
  6
CONTINUOUS
 62
    7
 10
561.39695888679466
 20
435.62869587904891
 40
0.6244598000000002
 50
179.99997999999789
 51
279.99995000000177
  0
LINE
  8
_0-1_ZISSEN1
  6
CONTINUOUS
 62
    7
 10
564.37402888679492
 20
435.51954587904777
 11
561.50538888679478
 21
435.01373587904789
  0
LINE
  8
_0-1_ZISSEN1
  6
CONTINUOUS
 62
    7
 10
560.77246888679485
 20
435.62869587904891
 11
560.77246888679485
 21
437.50208587904774
  0
ARC
  8
_0-1_ZISSEN1
  6
CONTINUOUS
 62
    7
 10
564.1029588867948
 20
437.05696587904788
 40
1.5611496
 50
280.00000000000608
 51
0.0000000000000127
  0
LINE
  8
_0-1_ZISSEN1
  6
CONTINUOUS
 62
    7
 10
565.65103888679482
 20
477.00954587904778
 11
565.66410888679479
 21
477.08003587904875
  0
ARC
  8
_0-1_ZISSEN1
  6
CONTINUOUS
 62
    7
 10
564.1029588867948
 20
477.08003587904875
 40
1.5611496
 50
0
 51
79.999984000004346
  0
LINE
  8
_0-1_ZISSEN1
  6
CONTINUOUS
 62
    7
 10
564.05480888679472
 20
474.25241587904873
 11
564.63524888679467
 21
474.39754587904883
  0
LINE
  8
_0-1_ZISSEN1
  6
CONTINUOUS
 62
    7
 10
564.63524888679467
 20
474.39754587904883
 11
565.21569888679483
 21
474.83286587904888
  0
LINE
  8
_0-1_ZISSEN1
  6
CONTINUOUS
 62
    7
 10
565.21569888679483
 20
474.83286587904888
 11
565.65103888679482
 21
475.55843587904781
  0
LINE
  8
_0-1_ZISSEN1
  6
CONTINUOUS
 62
    7
 10
565.65103888679482
 20
475.55843587904781
 11
565.65103888679482
 21
476.1388758790489
  0
LINE
  8
_0-1_ZISSEN1
  6
CONTINUOUS
 62
    7
 10
565.79613888679478
 20
476.42909587904876
 11
565.21569888679483
 21
476.1388758790489
  0
LINE
  8
_0-1_ZISSEN1
  6
CONTINUOUS
 62
    7
 10
565.21569888679483
 20
476.1388758790489
 11
565.5059188867948
 21
476.1388758790489
  0
LINE
  8
_0-1_ZISSEN1
  6
CONTINUOUS
 62
    7
 10
565.65103888679482
 20
477.00954587904778
 11
565.79613888679478
 21
476.42909587904876
  0
ARC
  8
_0-1_ZISSEN1
  6
CONTINUOUS
 62
    7
 10
563.96429888679472
 20
477.02517587904788
 40
0.3902874
 50
270
 51
79.999984000004375
  0
ARC
  8
_0-1_ZISSEN1
  6
CONTINUOUS
 62
    7
 10
561.39695888679466
 20
478.50828587904869
 40
0.6244598000000002
 50
80.000029999995192
 51
180
  0
LINE
  8
_0-1_ZISSEN1
  6
CONTINUOUS
 62
    7
 10
560.66841888679471
 20
475.07374587904781
 11
560.83541888679463
 21
474.45056587904776
  0
LINE
  8
_0-1_ZISSEN1
  6
CONTINUOUS
 62
    7
 10
561.15258888679477
 20
474.25241587904873
 11
561.73302888679461
 21
474.25241587904873
  0
LINE
  8
_0-1_ZISSEN1
  6
CONTINUOUS
 62
    7
 10
561.73302888679461
 20
474.25241587904873
 11
562.31347888679466
 21
474.25241587904873
  0
LINE
  8
_0-1_ZISSEN1
  6
CONTINUOUS
 62
    7
 10
562.31347888679466
 20
474.25241587904873
 11
562.89391888679461
 21
474.25241587904873
  0
LINE
  8
_0-1_ZISSEN1
  6
CONTINUOUS
 62
    7
 10
562.89391888679461
 20
474.25241587904873
 11
563.47436888679476
 21
474.25241587904873
  0
LINE
  8
_0-1_ZISSEN1
  6
CONTINUOUS
 62
    7
 10
560.7172388867948
 20
474.54264587904788
 11
561.15258888679477
 21
474.25241587904873
  0
LINE
  8
_0-1_ZISSEN1
  6
CONTINUOUS
 62
    7
 10
561.15258888679477
 20
474.25241587904873
 11
560.83541888679463
 21
474.45056587904776
  0
LINE
  8
_0-1_ZISSEN1
  6
CONTINUOUS
 62
    7
 10
559.21396888679465
 20
476.6348958790478
 11
556.79922888679482
 21
475.98786587904885
  0
LINE
  8
_0-1_ZISSEN1
  6
CONTINUOUS
 62
    7
 10
558.76444888679475
 20
473.82075587904876
 11
557.57673888679471
 21
473.50250587904782
  0
LINE
  8
_0-1_ZISSEN1
  6
CONTINUOUS
 62
    7
 10
559.41948888679497
 20
475.07374587904781
 11
557.30734888679478
 21
474.50780587904785
  0
ARC
  8
_0-1_ZISSEN1
  6
CONTINUOUS
 62
    7
 10
558.81887094180468
 20
472.91475331467984
 40
0.9076193597038256
 50
26.384007484777559
 51
93.439800174891673
  0
ARC
  8
_0-1_ZISSEN1
  6
CONTINUOUS
 62
    7
 10
557.44202888679479
 20
474.00515587904886
 40
0.5203829
 50
104.99999999999439
 51
284.9999799999934
  0
LINE
  8
_0-1_ZISSEN1
  6
CONTINUOUS
 62
    7
 10
559.41948888679497
 20
475.07374587904781
 11
560.66841888679471
 21
475.07374587904781
  0
LINE
  8
_0-1_ZISSEN1
  6
CONTINUOUS
 62
    7
 10
560.77246888679485
 20
478.50828587904869
 11
560.77246888679485
 21
476.6348958790478
  0
LINE
  8
_0-1_ZISSEN1
  6
CONTINUOUS
 62
    7
 10
560.77246888679485
 20
477.98430587904784
 11
564.03206888679472
 21
477.40955587904875
  0
LINE
  8
_0-1_ZISSEN1
  6
CONTINUOUS
 62
    7
 10
559.21396888679465
 20
476.6348958790478
 11
563.96429888679472
 21
476.6348958790478
  0
LINE
  8
_0-1_ZISSEN1
  6
CONTINUOUS
 62
    7
 10
564.37402888679492
 20
478.61742587904871
 11
561.50538888679478
 21
479.1232458790488
  0
LINE
  8
_0-1_ZISSEN1
  6
CONTINUOUS
 62
    7
 10
563.47436888679476
 20
474.25241587904873
 11
564.05480888679472
 21
474.25241587904873
  0
LINE
  8
_0-1_ZISSEN1
  6
CONTINUOUS
 62
    7
 10
555.25643888679474
 20
472.78406587904772
 11
555.25643888679474
 21
473.97726587904879
  0
ARC
  8
_0-1_ZISSEN1
  6
CONTINUOUS
 62
    7
 10
553.69529888679483
 20
472.78406587904772
 40
1.5611496
 50
306.86979000000275
 51
0.0000000000000318
  0
ARC
  8
_0-1_ZISSEN1
  6
CONTINUOUS
 62
    7
 10
557.33795888679469
 20
473.97726587904879
 40
2.0815328999999991
 50
104.9999799999933
 51
180
  0
LINE
  8
_0-1_ZISSEN1
  6
CONTINUOUS
 62
    7
 10
559.63194888679459
 20
454.98695587904774
 11
559.10727888679492
 21
454.98695587904774
  0
LINE
  8
_0-1_ZISSEN1
  6
CONTINUOUS
 62
    7
 10
559.63194888679459
 20
459.1500258790478
 11
559.10727888679492
 21
459.1500258790478
  0
ARC
  8
_0-1_ZISSEN1
  6
CONTINUOUS
 62
    7
 10
561.71659888679483
 20
457.06848587904881
 40
3.3378866
 50
141.41990000000411
 51
218.58007000000919
  0
LINE
  8
_0-1_ZISSEN1
  6
CONTINUOUS
 62
    7
 10
559.63194888679459
 20
459.1500258790478
 11
559.63194888679459
 21
473.31808587904777
  0
LINE
  8
_0-4_CL1
  6
CENTERX2
 62
    7
 10
562.41149888679456
 20
457.06461612439591
 11
554.6319488867947
 21
457.06461612439591
  0
LINE
  8
_0-5_SOUZOUSEN
  6
PHANTOMX2
 62
    5
 10
397.23194888679427
 20
411.0646201243959
 11
410.8893686111121
 21
411.0646201243959
  0
LINE
  8
_0-5_SOUZOUSEN
  6
PHANTOMX2
 62
    5
 10
388.23194888679518
 20
395.0646201243959
 11
388.23194888679518
 21
374.66462012439581
  0
LINE
  8
_0-5_SOUZOUSEN
  6
PHANTOMX2
 62
    5
 10
382.23194888679427
 20
396.0646201243959
 11
382.23194888679518
 21
374.66462012439581
  0
LINE
  8
_0-5_SOUZOUSEN
  6
PHANTOMX2
 62
    5
 10
398.23194888679518
 20
405.0646201243959
 11
411.05758555776106
 21
405.0646201243959
  0
ARC
  8
_0-5_SOUZOUSEN
  6
PHANTOMX2
 62
    5
 10
397.23194888679427
 20
396.0646201243959
 40
15
 50
90
 51
180
  0
ARC
  8
_0-5_SOUZOUSEN
  6
PHANTOMX2
 62
    5
 10
398.23194888679518
 20
395.0646201243959
 40
10
 50
90
 51
180
  0
INSERT
  2
-000-_D0
  8
_0-2_SUNPOU
 10
1478.5027156694562
 20
-1468.4152077817521
 41
1
 42
1
 50
0
  0
INSERT
  2
-001-_D1
  8
_0-2_SUNPOU
 10
1478.5027156694562
 20
-1468.4152077817521
 41
1
 42
1
 50
0
  0
TEXT
  8
_0-2_SUNPOU
 62
    7
 10
418.08138984352513
 20
132.96298703048785
 40
3.5
 41
1
 50
0
  1
2-M3
  0
INSERT
  2
-002-_D2
  8
_0-2_SUNPOU
 10
1478.5027156694562
 20
-1468.4152077817521
 41
1
 42
1
 50
0
  0
INSERT
  2
-003-_D3
  8
_0-2_SUNPOU
 10
1478.5027156694562
 20
-1468.4152077817521
 41
1
 42
1
 50
0
  0
LINE
  8
_0-4_CL1
  6
CENTERX2
 62
    7
 10
329.63194888679527
 20
174.06461312439581
 11
329.63194888679527
 21
168.06461812439591
  0
CIRCLE
  8
_0-1_ZISSEN1
  6
CONTINUOUS
 62
    7
 10
329.63194888679527
 20
171.06461612439591
 40
1.5
  0
TEXT
  8
_0-2_SUNPOU
 62
    7
 10
399.38194888679527
 20
194.31461612439591
 40
3.5
 41
1
 50
0
  1
取付穴加工寸法
  0
CIRCLE
  8
_0-1_ZISSEN1
  6
CONTINUOUS
 62
    7
 10
434.63194888679527
 20
127.06461612439591
 40
1.5
  0
LINE
  8
_0-4_CL1
  6
CENTERX2
 62
    7
 10
437.63195888679525
 20
127.06461612439591
 11
431.63194888679527
 21
127.06461612439591
  0
LINE
  8
_0-4_CL1
  6
CENTERX2
 62
    7
 10
326.63194888679527
 20
171.06461612439591
 11
332.63194388679517
 21
171.06461612439591
  0
LINE
  8
_0-1_ZISSEN1
  6
CONTINUOUS
 62
    7
 10
379.39199919602015
 20
438.66461612439582
 11
356.99196919602014
 21
438.66461612439582
  0
LINE
  8
_0-1_ZISSEN1
  6
CONTINUOUS
 62
    7
 10
379.39199919602015
 20
438.66461612439582
 11
379.39199919602015
 21
431.06461612439591
  0
LINE
  8
_0-1_ZISSEN1
  6
CONTINUOUS
 62
    7
 10
379.35198839906411
 20
431.10465570079589
 11
356.99196839906426
 21
431.08463570079573
  0
LINE
  8
_0-1_ZISSEN1
  6
CONTINUOUS
 62
    7
 10
357.03197919602007
 20
448.66461612439582
 11
334.63194919602006
 21
448.66461612439582
  0
LINE
  8
_0-1_ZISSEN1
  6
CONTINUOUS
 62
    7
 10
357.03197919602007
 20
441.06461612439591
 11
334.63194888679527
 21
441.0646157007958
  0
LINE
  8
_0-1_ZISSEN1
  6
CONTINUOUS
 62
    7
 10
334.63194888679527
 20
448.66461612439582
 11
334.63194888679527
 21
441.06461612439591
  0
LINE
  8
_0-1_ZISSEN1
  6
CONTINUOUS
 62
    7
 10
379.23194888679518
 20
441.06461612439591
 11
357.03197870828922
 21
441.06461612439591
  0
LINE
  8
_0-1_ZISSEN1
  6
CONTINUOUS
 62
    7
 10
379.23194888679518
 20
448.66461612439582
 11
357.03197950524623
 21
448.66461612439582
  0
LINE
  8
_0-1_ZISSEN1
  6
CONTINUOUS
 62
    7
 10
357.03194888679513
 20
448.66461612439582
 11
357.03194888679513
 21
441.06461612439591
  0
LINE
  8
_0-1_ZISSEN1
  6
CONTINUOUS
 62
    7
 10
379.43200950524624
 20
448.66461612439582
 11
379.43200950524624
 21
441.06461612439591
  0
LINE
  8
_0-1_ZISSEN1
  6
CONTINUOUS
 62
    7
 10
326.63194836173216
 20
441.06461628427485
 11
333.93195836173209
 21
441.06461628427485
  0
LINE
  8
_0-1_ZISSEN1
  6
CONTINUOUS
 62
    7
 10
326.63194836173216
 20
448.67462628427472
 11
333.93195836173209
 21
448.67462628427472
  0
LINE
  8
_0-1_ZISSEN1
  6
CONTINUOUS
 62
    7
 10
328.28193836173227
 20
441.06461628427485
 11
328.28193836173227
 21
448.67461612439581
  0
LINE
  8
_0-1_ZISSEN1
  6
CONTINUOUS
 62
    7
 10
326.63194836173216
 20
441.06461628427485
 11
326.63194836173216
 21
448.67461612439581
  0
LINE
  8
_0-1_ZISSEN1
  6
CONTINUOUS
 62
    7
 10
333.93195836173209
 20
441.06461628427485
 11
333.93195836173209
 21
448.67461612439581
  0
LINE
  8
_0-1_ZISSEN1
  6
CONTINUOUS
 62
    7
 10
332.28193836173227
 20
441.06461628427485
 11
332.28193836173227
 21
448.67461612439581
  0
LINE
  8
_0-1_ZISSEN1
  6
CONTINUOUS
 62
    7
 10
334.63194836173216
 20
472.95461628427472
 11
341.93195836173209
 21
472.95461628427472
  0
LINE
  8
_0-1_ZISSEN1
  6
CONTINUOUS
 62
    7
 10
334.63194836173216
 20
480.56462628427482
 11
341.93195836173209
 21
480.56462628427482
  0
LINE
  8
_0-1_ZISSEN1
  6
CONTINUOUS
 62
    7
 10
336.28193836173227
 20
472.95461628427472
 11
336.28193836173227
 21
480.56462628427482
  0
LINE
  8
_0-1_ZISSEN1
  6
CONTINUOUS
 62
    7
 10
334.63194836173216
 20
472.95461628427472
 11
334.63194836173216
 21
480.56462628427482
  0
LINE
  8
_0-1_ZISSEN1
  6
CONTINUOUS
 62
    7
 10
341.93195836173209
 20
472.95461628427472
 11
341.93195836173209
 21
480.56462628427482
  0
LINE
  8
_0-1_ZISSEN1
  6
CONTINUOUS
 62
    7
 10
340.28193836173227
 20
472.95461628427472
 11
340.28193836173227
 21
480.56462628427482
  0
LINE
  8
_0-1_ZISSEN1
  6
CONTINUOUS
 62
    7
 10
427.6320289299581
 20
431.06461570079671
 11
410.23198892995811
 21
431.06461570079671
  0
LINE
  8
_0-1_ZISSEN1
  6
CONTINUOUS
 62
    7
 10
427.6320289299581
 20
438.66461612439582
 11
410.23198892995811
 21
438.66461612439582
  0
LINE
  8
_0-1_ZISSEN1
  6
CONTINUOUS
 62
    7
 10
410.23198892995811
 20
438.66461612439582
 11
410.23198892995811
 21
431.06461612439591
  0
LINE
  8
_0-1_ZISSEN1
  6
CONTINUOUS
 62
    7
 10
427.63194888679527
 20
438.66461612439582
 11
427.63194888679527
 21
431.06461612439591
  0
LINE
  8
_0-1_ZISSEN1
  6
CONTINUOUS
 62
    7
 10
427.63202897312112
 20
448.66459612706274
 11
410.23198897312227
 21
448.66459612706274
  0
LINE
  8
_0-1_ZISSEN1
  6
CONTINUOUS
 62
    7
 10
427.63202897312112
 20
441.06461612706278
 11
410.23198897312227
 21
441.06461612706278
  0
LINE
  8
_0-1_ZISSEN1
  6
CONTINUOUS
 62
    7
 10
410.23198892995811
 20
441.06461655066289
 11
392.83194892995812
 21
441.06461655066289
  0
LINE
  8
_0-1_ZISSEN1
  6
CONTINUOUS
 62
    7
 10
410.23198892995811
 20
448.66459655066285
 11
392.83194892995812
 21
448.66459655066285
  0
LINE
  8
_0-1_ZISSEN1
  6
CONTINUOUS
 62
    7
 10
392.83194892995812
 20
448.66461612439582
 11
392.83194892995812
 21
441.06461612439591
  0
LINE
  8
_0-1_ZISSEN1
  6
CONTINUOUS
 62
    7
 10
410.23198897312227
 20
448.66459612706274
 11
410.23198897312227
 21
441.06461612706278
  0
LINE
  8
_0-1_ZISSEN1
  6
CONTINUOUS
 62
    7
 10
410.23198892995811
 20
448.66461612439582
 11
410.23198892995811
 21
441.06461612439591
  0
LINE
  8
_0-1_ZISSEN1
  6
CONTINUOUS
 62
    7
 10
427.63194888679527
 20
448.66461612439582
 11
427.63194888679527
 21
441.06461612439591
  0
LINE
  8
_0-1_ZISSEN1
  6
CONTINUOUS
 62
    7
 10
362.03194888679513
 20
458.66461612439582
 11
324.63194999568009
 21
458.66461612439582
  0
LINE
  8
_0-1_ZISSEN1
  6
CONTINUOUS
 62
    7
 10
362.03194888679513
 20
451.06461612439591
 11
324.63194919872308
 21
451.06461612439591
  0
LINE
  8
_0-1_ZISSEN1
  6
CONTINUOUS
 62
    7
 10
324.63194968645416
 20
458.66460638643377
 11
324.63194968645416
 21
451.06461638643384
  0
LINE
  8
_0-1_ZISSEN1
  6
CONTINUOUS
 62
    7
 10
362.03194888679513
 20
458.66460650202578
 11
362.03194888679513
 21
451.08463596283389
  0
LINE
  8
_0-1_ZISSEN1
  6
CONTINUOUS
 62
    7
 10
399.43194887158711
 20
451.06461612439591
 11
362.03194918351619
 21
451.06461612439591
  0
LINE
  8
_0-1_ZISSEN1
  6
CONTINUOUS
 62
    7
 10
399.43194887158711
 20
458.66461612439582
 11
362.03194998047206
 21
458.66461612439582
  0
LINE
  8
_0-1_ZISSEN1
  6
CONTINUOUS
 62
    7
 10
362.03194967124728
 20
458.66461612439582
 11
362.03194967124728
 21
451.06461612439591
  0
LINE
  8
_0-1_ZISSEN1
  6
CONTINUOUS
 62
    7
 10
399.43194887158711
 20
458.66461612439582
 11
399.43194887158711
 21
451.06461612439591
  0
LINE
  8
_0-1_ZISSEN1
  6
CONTINUOUS
 62
    7
 10
399.43194885637922
 20
468.66461612439582
 11
362.03194996526418
 21
468.66461612439582
  0
LINE
  8
_0-1_ZISSEN1
  6
CONTINUOUS
 62
    7
 10
399.43194885637922
 20
461.06461612439591
 11
362.03194916830807
 21
461.06461612439591
  0
LINE
  8
_0-1_ZISSEN1
  6
CONTINUOUS
 62
    7
 10
362.03194887158725
 20
461.06461612439591
 11
324.63194918351519
 21
461.06461612439591
  0
LINE
  8
_0-1_ZISSEN1
  6
CONTINUOUS
 62
    7
 10
362.03194887158725
 20
468.66461612439582
 11
324.6319499804722
 21
468.66461612439582
  0
LINE
  8
_0-1_ZISSEN1
  6
CONTINUOUS
 62
    7
 10
324.63194967124718
 20
468.66460625305888
 11
324.63194967124718
 21
461.06461625305872
  0
LINE
  8
_0-1_ZISSEN1
  6
CONTINUOUS
 62
    7
 10
362.03194965603916
 20
468.68462595812082
 11
362.03194965603916
 21
461.08463595812179
  0
LINE
  8
_0-1_ZISSEN1
  6
CONTINUOUS
 62
    7
 10
362.03194887158725
 20
468.66461612439582
 11
362.03194887158725
 21
461.06461612439591
  0
LINE
  8
_0-1_ZISSEN1
  6
CONTINUOUS
 62
    7
 10
399.43194885637922
 20
468.66461612439582
 11
399.43194885637922
 21
461.06461612439591
  0
LINE
  8
_0-1_ZISSEN1
  6
CONTINUOUS
 62
    7
 10
427.6319889724482
 20
451.06461612439591
 11
410.23194897244821
 21
451.06461612439591
  0
LINE
  8
_0-1_ZISSEN1
  6
CONTINUOUS
 62
    7
 10
427.6319889724482
 20
458.66461612439582
 11
410.23194897244821
 21
458.66461612439582
  0
LINE
  8
_0-1_ZISSEN1
  6
CONTINUOUS
 62
    7
 10
410.23194892928518
 20
458.66459669710878
 11
410.23194892928518
 21
451.06461669710882
  0
LINE
  8
_0-1_ZISSEN1
  6
CONTINUOUS
 62
    7
 10
410.23194897244821
 20
458.66461612439582
 11
410.23194897244821
 21
451.06461612439591
  0
LINE
  8
_0-1_ZISSEN1
  6
CONTINUOUS
 62
    7
 10
427.6319889724482
 20
458.66461612439582
 11
427.6319889724482
 21
451.06461612439591
  0
LINE
  8
_0-1_ZISSEN1
  6
CONTINUOUS
 62
    7
 10
325.13194888679527
 20
475.06461612439591
 11
332.63194888679527
 21
475.06461612439591
  0
LINE
  8
_0-1_ZISSEN1
  6
CONTINUOUS
 62
    7
 10
332.63194888679527
 20
475.06461612439591
 11
332.63194888679527
 21
482.56461612439591
  0
LINE
  8
_0-1_ZISSEN1
  6
CONTINUOUS
 62
    7
 10
429.63194892245519
 20
431.56461612439591
 11
429.63194892245519
 21
439.06461650926383
  0
LINE
  8
_0-1_ZISSEN1
  6
CONTINUOUS
 62
    7
 10
429.63194887158716
 20
439.06461650926383
 11
437.13194888679527
 21
439.06461650926383
  0
LINE
  8
_0-1_ZISSEN1
  6
CONTINUOUS
 62
    7
 10
430.03194888679513
 20
462.16461608566385
 11
430.03194888679513
 21
472.06461612439591
  0
LINE
  8
_0-1_ZISSEN1
  6
CONTINUOUS
 62
    7
 10
430.03194888679513
 20
472.06461612439591
 11
437.63194888679527
 21
472.06461612439591
  0
LINE
  8
_0-1_ZISSEN1
  6
CONTINUOUS
 62
    7
 10
430.03194888679513
 20
462.1646162995188
 11
437.63194866878712
 21
462.1646162995188
  0
LINE
  8
_0-4_CL1
  6
CENTERX2
 62
    7
 10
328.63194888679527
 20
484.06461612439591
 11
328.63194888679527
 21
474.06461612439591
  0
LINE
  8
_0-4_CL1
  6
CENTERX2
 62
    7
 10
433.63194888679527
 20
440.06461612439591
 11
433.63194888679527
 21
430.06461612439591
  0
LINE
  8
_0-4_CL1
  6
CENTERX2
 62
    7
 10
428.63194888679527
 20
435.06461612439591
 11
438.63194888679527
 21
435.06461612439591
  0
LINE
  8
_0-4_CL1
  6
CENTERX2
 62
    7
 10
323.63194888679527
 20
479.06461612439591
 11
333.63194888679527
 21
479.06461612439591
  0
LINE
  8
_0-1_ZISSEN1
  6
CONTINUOUS
 62
    7
 10
324.63194888679527
 20
432.06461612439591
 11
325.63194888679527
 21
431.06461612439591
  0
LINE
  8
_0-1_ZISSEN1
  6
CONTINUOUS
 62
    7
 10
324.63194888679527
 20
482.06461612439591
 11
325.63194888679527
 21
483.06461612439591
  0
LINE
  8
_0-1_ZISSEN1
  6
CONTINUOUS
 62
    7
 10
437.63194888679527
 20
432.06461612439591
 11
436.63194888679527
 21
431.06461612439591
  0
LINE
  8
_0-1_ZISSEN1
  6
CONTINUOUS
 62
    7
 10
436.63194888679527
 20
483.06461612439591
 11
437.63194888679527
 21
482.06461612439591
  0
INSERT
  2
-004-_D4
  8
_0-2_SUNPOU
 10
1478.5027156694562
 20
-1468.4152077817521
 41
1
 42
1
 50
0
  0
INSERT
  2
-005-_D5
  8
_0-2_SUNPOU
 10
1478.5027156694562
 20
-1468.4152077817521
 41
1
 42
1
 50
0
  0
INSERT
  2
-006-_D6
  8
_0-2_SUNPOU
 10
1478.5027156694562
 20
-1468.4152077817521
 41
1
 42
1
 50
0
  0
INSERT
  2
-007-_D7
  8
_0-2_SUNPOU
 10
1478.5027156694562
 20
-1468.4152077817521
 41
1
 42
1
 50
0
  0
INSERT
  2
-008-_D8
  8
_0-2_SUNPOU
 10
1478.5027156694562
 20
-1468.4152077817521
 41
1
 42
1
 50
0
  0
INSERT
  2
-009-_D9
  8
_0-2_SUNPOU
 10
1478.5027156694562
 20
-1468.4152077817521
 41
1
 42
1
 50
0
  0
TEXT
  8
_0-2_SUNPOU
 62
    7
 10
390.38314581247209
 20
426.4501707756948
 40
3.5
 41
1
 50
0
  1
2-φ3.5(取付穴)
  0
CIRCLE
  8
_0-1_ZISSEN1
  6
CONTINUOUS
 62
    7
 10
433.63194888679527
 20
435.06461612439591
 40
1.7499998999999991
  0
CIRCLE
  8
_0-1_ZISSEN1
  6
CONTINUOUS
 62
    7
 10
328.63194888679527
 20
479.06461612439591
 40
1.7499998999999991
  0
LINE
  8
_0-4_CL1
  6
CENTERX2
 62
    7
 10
554.63197805648576
 20
458.62963587904881
 11
554.6319488867947
 21
455.31461612439591
  0
LINE
  8
_0-1_ZISSEN1
  6
CONTINUOUS
 62
    7
 10
534.53194876350449
 20
431.06461626475482
 11
546.03191876350468
 21
431.06461626475482
  0
LINE
  8
_0-1_ZISSEN1
  6
CONTINUOUS
 62
    7
 10
534.53194876350449
 20
438.66461626475473
 11
546.03191876350468
 21
438.66461626475473
  0
LINE
  8
_0-1_ZISSEN1
  6
CONTINUOUS
 62
    7
 10
534.53194876350449
 20
441.06461626475482
 11
546.03191876350468
 21
441.06461626475482
  0
LINE
  8
_0-1_ZISSEN1
  6
CONTINUOUS
 62
    7
 10
534.53194876350449
 20
448.66461626475473
 11
546.03191876350468
 21
448.66461626475473
  0
LINE
  8
_0-1_ZISSEN1
  6
CONTINUOUS
 62
    7
 10
537.5319487635046
 20
448.67461626475472
 11
546.03194888679468
 21
448.67461626475472
  0
LINE
  8
_0-1_ZISSEN1
  6
CONTINUOUS
 62
    7
 10
534.53194876350449
 20
451.06461626475482
 11
546.03191876350468
 21
451.06461626475482
  0
LINE
  8
_0-1_ZISSEN1
  6
CONTINUOUS
 62
    7
 10
534.53194876350449
 20
462.16461571119987
 11
546.03191876350468
 21
462.16461571119987
  0
LINE
  8
_0-1_ZISSEN1
  6
CONTINUOUS
 62
    7
 10
534.53194853896071
 20
441.06461627173883
 11
534.53197866225082
 21
448.66461613137983
  0
LINE
  8
_0-1_ZISSEN1
  6
CONTINUOUS
 62
    7
 10
534.53194853896071
 20
431.06461627173883
 11
534.53197866225082
 21
438.66461613137983
  0
LINE
  8
_0-1_ZISSEN1
  6
CONTINUOUS
 62
    7
 10
537.5319487635046
 20
448.67461626475472
 11
537.5319487635046
 21
448.66461612439582
  0
LINE
  8
_0-1_ZISSEN1
  6
CONTINUOUS
 62
    7
 10
530.63194857310521
 20
479.16461653206591
 11
530.6319488867947
 21
475.46461612439577
  0
LINE
  8
_0-1_ZISSEN1
  6
CONTINUOUS
 62
    7
 10
530.6319488867947
 20
475.46461612439577
 11
535.63194888679459
 21
475.46461612439577
  0
LINE
  8
_0-1_ZISSEN1
  6
CONTINUOUS
 62
    7
 10
530.63194857310521
 20
479.16461653206591
 11
535.63194857310509
 21
479.16461653206591
  0
INSERT
  2
-010-_D10
  8
_0-4_CL1
 10
1478.5027156694562
 20
-1468.4152077817521
 41
1
 42
1
 50
0
  0
INSERT
  2
-011-_D11
  8
_0-2_SUNPOU
 10
1478.5027156694562
 20
-1468.4152077817521
 41
1
 42
1
 50
0
  0
INSERT
  2
-012-_D12
  8
_0-2_SUNPOU
 10
1478.5027156694562
 20
-1468.4152077817521
 41
1
 42
1
 50
0
  0
LINE
  8
_0-5_SOUZOUSEN
  6
PHANTOMX2
 62
    5
 10
479.63194488679437
 20
480.31461612439591
 11
501.03194888679479
 21
480.31461612439591
  0
LINE
  8
_0-5_SOUZOUSEN
  6
PHANTOMX2
 62
    5
 10
480.63194488679471
 20
474.31461612439477
 11
501.03194888679479
 21
474.31461612439591
  0
ARC
  8
_0-5_SOUZOUSEN
  6
PHANTOMX2
 62
    5
 10
480.63194488679483
 20
464.31461612439477
 40
10
 50
90
 51
180
  0
LINE
  8
_0-5_SOUZOUSEN
  6
PHANTOMX2
 62
    5
 10
464.63194488679517
 20
465.31461612439477
 11
464.63194488679517
 21
451.65719640007671
  0
ARC
  8
_0-5_SOUZOUSEN
  6
PHANTOMX2
 62
    5
 10
479.6319448867946
 20
465.31461612439591
 40
15
 50
90
 51
180
  0
LINE
  8
_0-5_SOUZOUSEN
  6
PHANTOMX2
 62
    5
 10
470.63194488679517
 20
464.31461612439477
 11
470.63194488679619
 21
451.48897945342776
  0
INSERT
  2
-013-_D13
  8
_0-2_SUNPOU
 10
1478.5027156694562
 20
-1468.4152077817521
 41
1
 42
1
 50
0
  0
LINE
  8
_0-1_ZISSEN1
  6
CONTINUOUS
 62
    7
 10
324.63194888679527
 20
474.56461612439591
 11
325.13194888679527
 21
475.06461612439591
  0
LINE
  8
_0-1_ZISSEN1
  6
CONTINUOUS
 62
    7
 10
332.63194888679527
 20
482.56461612439591
 11
333.13194888679527
 21
483.06461612439591
  0
LINE
  8
_0-1_ZISSEN1
  6
CONTINUOUS
 62
    7
 10
437.13194888679527
 20
439.06461650926383
 11
437.63194888679527
 21
439.56461650926383
  0
LINE
  8
_0-1_ZISSEN1
  6
CONTINUOUS
 62
    7
 10
429.63194892245519
 20
431.56461612439591
 11
429.13194892245406
 21
431.06461612439591
  0
LINE
  8
_0-1_ZISSEN1
  6
CONTINUOUS
 62
    7
 10
324.63194884601921
 20
329.66461384620573
 11
324.63194884601921
 21
341.16459584620577
  0
LINE
  8
_0-1_ZISSEN1
  6
CONTINUOUS
 62
    7
 10
324.63194884601921
 20
341.16459584620577
 11
334.63194888679527
 21
341.16459512439576
  0
LINE
  8
_0-1_ZISSEN1
  6
CONTINUOUS
 62
    7
 10
430.03194888679513
 20
341.16460250193188
 11
430.03194888679513
 21
329.66461450193185
  0
LINE
  8
_0-1_ZISSEN1
  6
CONTINUOUS
 62
    7
 10
437.63194970904306
 20
341.16459950193178
 11
437.63194970904306
 21
329.66461150193174
  0
LINE
  8
_0-1_ZISSEN1
  6
CONTINUOUS
 62
    7
 10
430.03194888679513
 20
341.16460250193188
 11
437.63194970904306
 21
341.16459950193178
  0
LINE
  8
_0-1_ZISSEN1
  6
CONTINUOUS
 62
    7
 10
437.13195002700627
 20
328.06461794214385
 11
437.13195002700627
 21
329.66461894214387
  0
LINE
  8
_0-1_ZISSEN1
  6
CONTINUOUS
 62
    7
 10
429.13195002700627
 20
328.06461794214385
 11
429.13195002700627
 21
329.66461894214387
  0
LINE
  8
_0-1_ZISSEN1
  6
CONTINUOUS
 62
    7
 10
547.63196625686192
 20
439.56461852384871
 11
546.03194625686217
 21
439.56461852384871
  0
LINE
  8
_0-1_ZISSEN1
  6
CONTINUOUS
 62
    7
 10
324.63194888679527
 20
296.06461612439591
 11
437.63194888679527
 21
296.06461612439591
  0
LINE
  8
_0-1_ZISSEN1
  6
CONTINUOUS
 62
    7
 10
437.63194888679527
 20
244.06461612439591
 11
437.63194981079414
 21
268.31461517889591
  0
LINE
  8
_0-1_ZISSEN1
  6
CONTINUOUS
 62
    7
 10
324.63194888679527
 20
244.06461612439591
 11
437.63194888679527
 21
244.06461612439591
  0
LINE
  8
_0-1_ZISSEN1
  6
CONTINUOUS
 62
    7
 10
324.63194888679527
 20
244.06461612439591
 11
324.63194888679527
 21
268.31461612439591
  0
LINE
  8
_0-1_ZISSEN1
  6
CONTINUOUS
 62
    7
 10
348.13194888679527
 20
249.06461612439591
 11
354.13194888679527
 21
249.06461612439591
  0
LINE
  8
_0-1_ZISSEN1
  6
CONTINUOUS
 62
    7
 10
354.13194888679527
 20
249.06461612439591
 11
354.13194888679527
 21
291.06461612439591
  0
LINE
  8
_0-1_ZISSEN1
  6
CONTINUOUS
 62
    7
 10
354.13194888679527
 20
291.06461612439591
 11
348.13194888679527
 21
291.06461612439591
  0
LINE
  8
_0-1_ZISSEN1
  6
CONTINUOUS
 62
    7
 10
348.13194888679527
 20
291.06461612439591
 11
348.13194888679527
 21
249.06461612439591
  0
LINE
  8
_0-1_ZISSEN1
  6
CONTINUOUS
 62
    7
 10
408.13194794926926
 20
249.06461340417479
 11
414.13194794926926
 21
249.06461340417479
  0
LINE
  8
_0-1_ZISSEN1
  6
CONTINUOUS
 62
    7
 10
414.13194794926926
 20
249.06461340417479
 11
414.13194794926926
 21
291.06461340417479
  0
LINE
  8
_0-1_ZISSEN1
  6
CONTINUOUS
 62
    7
 10
414.13194794926926
 20
291.06461340417479
 11
408.13194794926926
 21
291.06461340417479
  0
LINE
  8
_0-1_ZISSEN1
  6
CONTINUOUS
 62
    7
 10
408.13194794926926
 20
291.06461340417479
 11
408.13194794926926
 21
249.06461340417479
  0
LINE
  8
_0-1_ZISSEN1
  6
CONTINUOUS
 62
    7
 10
324.63194888679527
 20
268.31461612439591
 11
332.13194888679527
 21
268.31461612439591
  0
LINE
  8
_0-1_ZISSEN1
  6
CONTINUOUS
 62
    7
 10
332.13194888679527
 20
271.81461612439591
 11
324.63194888679527
 21
271.81461612439591
  0
ARC
  8
_0-1_ZISSEN1
  6
CONTINUOUS
 62
    7
 10
332.13194888679527
 20
270.06461612439591
 40
1.75
 50
0
 51
90
  0
ARC
  8
_0-1_ZISSEN1
  6
CONTINUOUS
 62
    7
 10
332.13194888679527
 20
270.06461612439591
 40
1.75
 50
270
 51
0
  0
LINE
  8
_0-1_ZISSEN1
  6
CONTINUOUS
 62
    7
 10
437.63194981079414
 20
268.31461517889591
 11
430.13194981079414
 21
268.31461517889591
  0
ARC
  8
_0-1_ZISSEN1
  6
CONTINUOUS
 62
    7
 10
430.13194981079414
 20
270.06461517889591
 40
1.75
 50
180
 51
270
  0
LINE
  8
_0-1_ZISSEN1
  6
CONTINUOUS
 62
    7
 10
430.13194981079414
 20
271.81461517889591
 11
437.63194981079414
 21
271.81461517889591
  0
ARC
  8
_0-1_ZISSEN1
  6
CONTINUOUS
 62
    7
 10
430.13194981079414
 20
270.06461517889591
 40
1.75
 50
90
 51
180
  0
LINE
  8
_0-1_ZISSEN1
  6
CONTINUOUS
 62
    7
 10
437.63195400836526
 20
271.81461227216676
 11
437.63195493236412
 21
296.06461132666675
  0
LINE
  8
_0-1_ZISSEN1
  6
CONTINUOUS
 62
    7
 10
324.63194796279527
 20
271.81461321766585
 11
324.63194796279527
 21
296.06461321766676
  0
LINE
  8
_0-4_CL1
  6
CENTERX2
 62
    7
 10
322.63194888679527
 20
270.06461612439591
 11
439.63194888679527
 21
270.06461612439591
  0
CIRCLE
  8
_0-1_ZISSEN1
  6
CONTINUOUS
 62
    7
 10
328.63194888679527
 20
248.06461612439591
 40
1.75
  0
CIRCLE
  8
_0-1_ZISSEN1
  6
CONTINUOUS
 62
    7
 10
433.63194888679527
 20
292.06461612439591
 40
1.75
  0
LINE
  8
_0-4_CL1
  6
CENTERX2
 62
    7
 10
381.13194888679527
 20
242.06461612439591
 11
381.13194888679527
 21
298.06461612439591
  0
TEXT
  8
_0-2_SUNPOU
 62
    7
 10
357.19496135879126
 20
306.13329926890185
 40
2.5
 41
1
 50
0
  1
マウンティングフット
  0
TEXT
  8
_0-2_SUNPOU
 62
    7
 10
357.19496135879126
 20
302.38329926890185
 40
2.5
 41
1
 50
0
  1
取り付け穴(M3タップ×４)
  0
LINE
  8
_0-4_CL1
  6
CENTERX2
 62
    7
 10
332.13194888679527
 20
273.06461612439591
 11
332.13194888679527
 21
267.06461612439591
  0
LINE
  8
_0-4_CL1
  6
CENTERX2
 62
    7
 10
430.13195285694314
 20
273.06461689338073
 11
430.13195285694314
 21
267.06461689338073
  0
LINE
  8
_0-1_ZISSEN1
  6
CONTINUOUS
 62
    7
 10
354.13194888679527
 20
286.06461612439591
 11
348.13194888679527
 21
286.06461612439591
  0
LINE
  8
_0-1_ZISSEN1
  6
CONTINUOUS
 62
    7
 10
354.13194794927017
 20
254.06461901099976
 11
348.13194794927017
 21
254.06461901099976
  0
LINE
  8
_0-1_ZISSEN1
  6
CONTINUOUS
 62
    7
 10
414.13194794926926
 20
286.06461359068169
 11
408.13194794926926
 21
286.06461359068169
  0
LINE
  8
_0-1_ZISSEN1
  6
CONTINUOUS
 62
    7
 10
414.13194701174416
 20
254.06461647728577
 11
408.13194701174416
 21
254.06461647728577
  0
LINE
  8
_0-4_CL1
  6
CENTERX2
 62
    7
 10
512.63195120663181
 20
211.56461868106283
 11
512.63195120663181
 21
328.56461868106283
  0
LINE
  8
_0-1_ZISSEN1
  6
CONTINUOUS
 62
    7
 10
486.63195120663181
 20
213.56461868106283
 11
486.63195120663181
 21
326.56461868106283
  0
LINE
  8
_0-1_ZISSEN1
  6
CONTINUOUS
 62
    7
 10
538.63195120663181
 20
213.56461868106283
 11
538.63195120663181
 21
326.56461868106283
  0
LINE
  8
_0-1_ZISSEN1
  6
CONTINUOUS
 62
    7
 10
510.88195411336142
 20
213.56461775706373
 11
486.63195411336142
 21
213.56461775706373
  0
LINE
  8
_0-4_CL1
  6
CENTERX2
 62
    7
 10
509.63195120663181
 20
221.06461868106283
 11
515.63195120663181
 21
221.06461868106283
  0
CIRCLE
  8
_0-1_ZISSEN1
  6
CONTINUOUS
 62
    7
 10
534.63195120663158
 20
217.56461868106283
 40
1.75
  0
LINE
  8
_0-1_ZISSEN1
  6
CONTINUOUS
 62
    7
 10
538.63195120663181
 20
213.56461868106283
 11
514.38195120663181
 21
213.56461868106283
  0
LINE
  8
_0-1_ZISSEN1
  6
CONTINUOUS
 62
    7
 10
514.38195120663181
 20
213.56461868106283
 11
514.38195120663181
 21
221.06461868106283
  0
ARC
  8
_0-1_ZISSEN1
  6
CONTINUOUS
 62
    7
 10
512.6319512066317
 20
221.06461868106283
 40
1.75
 50
0
 51
90
  0
LINE
  8
_0-1_ZISSEN1
  6
CONTINUOUS
 62
    7
 10
510.88195120663181
 20
221.06461868106283
 11
510.88195120663181
 21
213.56461868106283
  0
ARC
  8
_0-1_ZISSEN1
  6
CONTINUOUS
 62
    7
 10
512.6319512066317
 20
221.06461868106283
 40
1.75
 50
90
 51
180
  0
LINE
  8
_0-4_CL1
  6
CENTERX2
 62
    7
 10
540.63195120663181
 20
270.06461868106283
 11
484.63195120663181
 21
270.06461868106283
  0
LINE
  8
_0-1_ZISSEN1
  6
CONTINUOUS
 62
    7
 10
510.88195505886131
 20
326.56462380263281
 11
486.63195600436097
 21
326.56462472663281
  0
LINE
  8
_0-4_CL1
  6
CENTERX2
 62
    7
 10
509.63195043764688
 20
319.0646226512107
 11
515.63195043764665
 21
319.0646226512107
  0
LINE
  8
_0-1_ZISSEN1
  6
CONTINUOUS
 62
    7
 10
538.63195120663181
 20
326.56461868106283
 11
514.3819521521317
 21
326.56461960506169
  0
ARC
  8
_0-1_ZISSEN1
  6
CONTINUOUS
 62
    7
 10
512.63195215213136
 20
319.06461960506169
 40
1.75
 50
270
 51
0
  0
ARC
  8
_0-1_ZISSEN1
  6
CONTINUOUS
 62
    7
 10
512.63195215213136
 20
319.06461960506169
 40
1.75
 50
180
 51
270
  0
LINE
  8
_0-1_ZISSEN1
  6
CONTINUOUS
 62
    7
 10
514.3819521521317
 20
326.56461960506169
 11
514.3819521521317
 21
319.06461960506169
  0
LINE
  8
_0-1_ZISSEN1
  6
CONTINUOUS
 62
    7
 10
510.8819521521317
 20
319.06461960506169
 11
510.8819521521317
 21
326.56461960506169
  0
CIRCLE
  8
_0-1_ZISSEN1
  6
CONTINUOUS
 62
    7
 10
490.63195120663158
 20
322.56461868106283
 40
1.75
  0
LINE
  8
_0-1_ZISSEN1
  6
CONTINUOUS
 62
    7
 10
474.63194982432015
 20
201.5646188446168
 11
550.63194982431992
 21
201.5646188446168
  0
LINE
  8
_0-1_ZISSEN1
  6
CONTINUOUS
 62
    7
 10
550.63194982431992
 20
201.5646188446168
 11
550.63194982431992
 21
334.56461884461771
  0
LINE
  8
_0-1_ZISSEN1
  6
CONTINUOUS
 62
    7
 10
486.63194982431992
 20
334.56461884461771
 11
474.63194982432015
 21
334.56461884461771
  0
LINE
  8
_0-1_ZISSEN1
  6
CONTINUOUS
 62
    7
 10
474.63194982432015
 20
334.56461884461771
 11
474.63194982432015
 21
201.5646188446168
  0
TEXT
  8
_0-1_ZISSEN1
 62
    7
 10
487.60871180910976
 20
334.60650491666877
 40
2.5
 41
1
 50
0
  1
+25CF下図のように90°向きを変えて
  0
TEXT
  8
_0-1_ZISSEN1
 62
    7
 10
487.60871180910976
 20
330.85650491666877
 40
2.5
 41
1
 50
0
  1
　使用する事が可能です。
  0
LINE
  8
_0-1_ZISSEN1
  6
CONTINUOUS
 62
    7
 10
550.63194982431992
 20
334.56461884461771
 11
537.63194982431992
 21
334.56461884461771
  0
LINE
  8
_0-1_ZISSEN1
  6
CONTINUOUS
 62
    7
 10
500.63194794926937
 20
254.06461901099976
 11
494.63194794926926
 21
254.06461901099976
  0
LINE
  8
_0-1_ZISSEN1
  6
CONTINUOUS
 62
    7
 10
500.63194888679459
 20
286.06461612439591
 11
494.63194888679459
 21
286.06461612439591
  0
LINE
  8
_0-1_ZISSEN1
  6
CONTINUOUS
 62
    7
 10
500.63194888679459
 20
291.06461612439591
 11
494.63194888679459
 21
291.06461612439591
  0
LINE
  8
_0-1_ZISSEN1
  6
CONTINUOUS
 62
    7
 10
494.63194888679459
 20
249.06461612439591
 11
500.63194888679459
 21
249.06461612439591
  0
LINE
  8
_0-1_ZISSEN1
  6
CONTINUOUS
 62
    7
 10
494.63194888679459
 20
291.06461612439591
 11
494.63194888679459
 21
249.06461612439591
  0
LINE
  8
_0-1_ZISSEN1
  6
CONTINUOUS
 62
    7
 10
500.63194888679459
 20
249.06461612439591
 11
500.63194888679459
 21
291.06461612439591
  0
LINE
  8
_0-1_ZISSEN1
  6
CONTINUOUS
 62
    7
 10
530.63194794926926
 20
254.06461901099976
 11
524.63194794926937
 21
254.06461901099976
  0
LINE
  8
_0-1_ZISSEN1
  6
CONTINUOUS
 62
    7
 10
530.6319488867947
 20
286.06461612439591
 11
524.6319488867947
 21
286.06461612439591
  0
LINE
  8
_0-1_ZISSEN1
  6
CONTINUOUS
 62
    7
 10
530.6319488867947
 20
291.06461612439591
 11
524.6319488867947
 21
291.06461612439591
  0
LINE
  8
_0-1_ZISSEN1
  6
CONTINUOUS
 62
    7
 10
524.6319488867947
 20
249.06461612439591
 11
530.6319488867947
 21
249.06461612439591
  0
LINE
  8
_0-1_ZISSEN1
  6
CONTINUOUS
 62
    7
 10
524.6319488867947
 20
291.06461612439591
 11
524.6319488867947
 21
249.06461612439591
  0
LINE
  8
_0-1_ZISSEN1
  6
CONTINUOUS
 62
    7
 10
530.6319488867947
 20
249.06461612439591
 11
530.6319488867947
 21
291.06461612439591
  0
LINE
  8
_0-1_ZISSEN1
  6
CONTINUOUS
 62
    7
 10
314.63194888679527
 20
111.06461612439591
 11
474.63194888679516
 21
111.06461612439591
  0
LINE
  8
_0-1_ZISSEN1
  6
CONTINUOUS
 62
    7
 10
474.63194888679516
 20
111.06461612439591
 11
474.63194888679516
 21
196.06461612439591
  0
LINE
  8
_0-1_ZISSEN1
  6
CONTINUOUS
 62
    7
 10
377.63194888679527
 20
196.06461612439591
 11
314.63194888679527
 21
196.06461612439591
  0
LINE
  8
_0-1_ZISSEN1
  6
CONTINUOUS
 62
    7
 10
314.63194888679527
 20
196.06461612439591
 11
314.63194888679527
 21
111.06461612439591
  0
LINE
  8
_0-1_ZISSEN1
  6
CONTINUOUS
 62
    7
 10
474.63194888679516
 20
196.06461612439591
 11
411.63194888679527
 21
196.06461612439591
  0
LINE
  8
_0-3_KAKURESEN1
  6
DASHEDX2
 62
    3
 10
558.73279573587899
 20
458.56461612439591
 11
552.63195888679445
 21
458.56461612439591
  0
LINE
  8
_0-3_KAKURESEN1
  6
DASHEDX2
 62
    3
 10
554.6319488867947
 20
458.06461612439591
 11
552.63195888679445
 21
458.06461612439591
  0
LINE
  8
_0-3_KAKURESEN1
  6
DASHEDX2
 62
    3
 10
558.53081617468729
 20
458.06461612439591
 11
552.63195888679445
 21
458.06461612439591
  0
LINE
  8
_0-3_KAKURESEN1
  6
DASHEDX2
 62
    3
 10
552.63195888679445
 20
455.56461612439591
 11
558.73668903656437
 21
455.56461612439591
  0
LINE
  8
_0-3_KAKURESEN1
  6
DASHEDX2
 62
    3
 10
552.63195888679445
 20
456.06461612439591
 11
558.5332464918888
 21
456.06461612439591
  0
CIRCLE
  8
_0-1_ZISSEN1
  6
CONTINUOUS
 62
    7
 10
411.13194888679527
 20
270.06461612439591
 40
1
  0
ARC
  8
_0-1_ZISSEN1
  6
CONTINUOUS
 62
    7
 10
411.13194888679527
 20
270.06461612439591
 40
2
 50
330.65881829724941
 51
29.999999999997268
  0
ARC
  8
_0-1_ZISSEN1
  6
CONTINUOUS
 62
    7
 10
411.13194888679527
 20
270.06461612439591
 40
2
 50
149.34118170274587
 51
209.99999999998587
  0
CIRCLE
  8
_0-7_SAISEN
  6
CONTINUOUS
 62
    1
 10
411.13194888679527
 20
270.06461612439591
 40
1.5
  0
ARC
  8
_0-1_ZISSEN1
  6
CONTINUOUS
 62
    7
 10
411.13194888679527
 20
270.06461612439591
 40
2
 50
240.00000000001387
 51
300.38036333329438
  0
ARC
  8
_0-1_ZISSEN1
  6
CONTINUOUS
 62
    7
 10
411.13194888679527
 20
270.06461612439591
 40
2
 50
60.000000000002721
 51
119.61963666671421
  0
CIRCLE
  8
_0-1_ZISSEN1
  6
CONTINUOUS
 62
    7
 10
381.13194888679527
 20
255.06461612439591
 40
1
  0
ARC
  8
_0-1_ZISSEN1
  6
CONTINUOUS
 62
    7
 10
381.13194888679527
 20
255.06461612439591
 40
2
 50
330.65881829724941
 51
29.999999999997268
  0
ARC
  8
_0-1_ZISSEN1
  6
CONTINUOUS
 62
    7
 10
381.13194888679527
 20
255.06461612439591
 40
2
 50
149.34118170274587
 51
209.99999999998587
  0
CIRCLE
  8
_0-7_SAISEN
  6
CONTINUOUS
 62
    1
 10
381.13194888679527
 20
255.06461612439591
 40
1.5
  0
ARC
  8
_0-1_ZISSEN1
  6
CONTINUOUS
 62
    7
 10
381.13194888679527
 20
255.06461612439591
 40
2
 50
240.00000000001387
 51
300.38036333329438
  0
ARC
  8
_0-1_ZISSEN1
  6
CONTINUOUS
 62
    7
 10
381.13194888679527
 20
255.06461612439591
 40
2
 50
60.000000000002721
 51
119.61963666671421
  0
CIRCLE
  8
_0-7_SAISEN
  6
CONTINUOUS
 62
    1
 10
381.13194888679527
 20
285.06461612439591
 40
1.5
  0
CIRCLE
  8
_0-1_ZISSEN1
  6
CONTINUOUS
 62
    7
 10
381.13194888679527
 20
285.06461612439591
 40
1
  0
ARC
  8
_0-1_ZISSEN1
  6
CONTINUOUS
 62
    7
 10
381.13194888679527
 20
285.06461612439591
 40
2
 50
330.65881829724941
 51
29.999999999997268
  0
ARC
  8
_0-1_ZISSEN1
  6
CONTINUOUS
 62
    7
 10
381.13194888679527
 20
285.06461612439591
 40
2
 50
149.34118170274587
 51
209.99999999998587
  0
ARC
  8
_0-1_ZISSEN1
  6
CONTINUOUS
 62
    7
 10
381.13194888679527
 20
285.06461612439591
 40
2
 50
240.00000000001387
 51
300.38036333329438
  0
ARC
  8
_0-1_ZISSEN1
  6
CONTINUOUS
 62
    7
 10
381.13194888679527
 20
285.06461612439591
 40
2
 50
60.000000000002721
 51
119.61963666671421
  0
CIRCLE
  8
_0-1_ZISSEN1
  6
CONTINUOUS
 62
    7
 10
-453.23881325619186
 20
1948.5444400305441
 40
1
  0
ARC
  8
_0-1_ZISSEN1
  6
CONTINUOUS
 62
    7
 10
-453.24312320012882
 20
1948.5444400305441
 40
2
 50
149.34118170274587
 51
209.99999999998587
  0
ARC
  8
_0-1_ZISSEN1
  6
CONTINUOUS
 62
    7
 10
-453.24312320012882
 20
1948.5444400305441
 40
2
 50
240.00000000001387
 51
300.38036333329438
  0
ARC
  8
_0-1_ZISSEN1
  6
CONTINUOUS
 62
    7
 10
-453.24312320012882
 20
1948.5444400305441
 40
2
 50
330.65881829724941
 51
29.999999999997268
  0
ARC
  8
_0-1_ZISSEN1
  6
CONTINUOUS
 62
    7
 10
-453.24312320012882
 20
1948.5444400305441
 40
2
 50
60.000000000002721
 51
119.61963666671421
  0
CIRCLE
  8
_0-7_SAISEN
  6
CONTINUOUS
 62
    1
 10
-453.23881325619186
 20
1948.5444400305441
 40
1.5
  0
CIRCLE
  8
_0-1_ZISSEN1
  6
CONTINUOUS
 62
    7
 10
512.63195120663181
 20
300.06461612439591
 40
1
  0
ARC
  8
_0-1_ZISSEN1
  6
CONTINUOUS
 62
    7
 10
512.62764126269542
 20
300.06461612439591
 40
2
 50
149.34118170274587
 51
209.99999999998587
  0
ARC
  8
_0-1_ZISSEN1
  6
CONTINUOUS
 62
    7
 10
512.62764126269542
 20
300.06461612439591
 40
2
 50
240.00000000001387
 51
300.38036333329438
  0
ARC
  8
_0-1_ZISSEN1
  6
CONTINUOUS
 62
    7
 10
512.62764126269542
 20
300.06461612439591
 40
2
 50
330.65881829724941
 51
29.999999999997268
  0
ARC
  8
_0-1_ZISSEN1
  6
CONTINUOUS
 62
    7
 10
512.62764126269542
 20
300.06461612439591
 40
2
 50
60.000000000002721
 51
119.61963666671421
  0
CIRCLE
  8
_0-7_SAISEN
  6
CONTINUOUS
 62
    1
 10
512.63195120663181
 20
300.06461612439591
 40
1.5
  0
CIRCLE
  8
_0-1_ZISSEN1
  6
CONTINUOUS
 62
    7
 10
527.63195120663181
 20
270.06461612439591
 40
1
  0
ARC
  8
_0-1_ZISSEN1
  6
CONTINUOUS
 62
    7
 10
527.62764126269542
 20
270.06461612439591
 40
2
 50
149.34118170274587
 51
209.99999999998587
  0
ARC
  8
_0-1_ZISSEN1
  6
CONTINUOUS
 62
    7
 10
527.62764126269542
 20
270.06461612439591
 40
2
 50
240.00000000001387
 51
300.38036333329438
  0
ARC
  8
_0-1_ZISSEN1
  6
CONTINUOUS
 62
    7
 10
527.62764126269542
 20
270.06461612439591
 40
2
 50
330.65881829724941
 51
29.999999999997268
  0
ARC
  8
_0-1_ZISSEN1
  6
CONTINUOUS
 62
    7
 10
527.62764126269542
 20
270.06461612439591
 40
2
 50
60.000000000002721
 51
119.61963666671421
  0
CIRCLE
  8
_0-7_SAISEN
  6
CONTINUOUS
 62
    1
 10
527.63195120663181
 20
270.06461612439591
 40
1.5
  0
CIRCLE
  8
_0-1_ZISSEN1
  6
CONTINUOUS
 62
    7
 10
497.63195120663181
 20
270.06461612439591
 40
1
  0
ARC
  8
_0-1_ZISSEN1
  6
CONTINUOUS
 62
    7
 10
497.62764126269531
 20
270.06461612439591
 40
2
 50
149.34118170274587
 51
209.99999999998587
  0
ARC
  8
_0-1_ZISSEN1
  6
CONTINUOUS
 62
    7
 10
497.62764126269531
 20
270.06461612439591
 40
2
 50
240.00000000001387
 51
300.38036333329438
  0
ARC
  8
_0-1_ZISSEN1
  6
CONTINUOUS
 62
    7
 10
497.62764126269531
 20
270.06461612439591
 40
2
 50
330.65881829724941
 51
29.999999999997268
  0
ARC
  8
_0-1_ZISSEN1
  6
CONTINUOUS
 62
    7
 10
497.62764126269531
 20
270.06461612439591
 40
2
 50
60.000000000002721
 51
119.61963666671421
  0
CIRCLE
  8
_0-7_SAISEN
  6
CONTINUOUS
 62
    1
 10
497.63195120663181
 20
270.06461612439591
 40
1.5
  0
INSERT
  2
-014-_D14
  8
_0-2_SUNPOU
 10
1478.5027156694562
 20
-1468.4152077817521
 41
1
 42
1
 50
0
  0
INSERT
  2
-015-_D15
  8
_0-2_SUNPOU
 10
1478.5027156694562
 20
-1468.4152077817521
 41
1
 42
1
 50
0
  0
TEXT
  8
_0-2_SUNPOU
 62
    7
 10
1852.6890281001506
 20
-1407.5472607226761
 40
3.5
 41
1
 50
0
  1
縮尺 1/2
  0
ENDSEC
  0
EOF
